Oops, an error
Loading. Please wait.

Far Cry Bass Tab

version 1
version 1

Whole song

Interactive

by Rush
14,872 views 48 this week
9 commentsread comments
1 2 3 4 5
accurate
x 10
add to favorites
launch autoscroll
font size
0
reset
guitar tuner
Tab Pro tools
  • play this tab
  • loop segment
  • change instrument
  • show fretboard
  • metronome
×
Best way to learn
"Far Cry"
Autoscroll
slow
fast
+/-
esc
set tempo
stop
Contributor
Intro
G---------------------------------------------------|
D---------------------------------------------------|
A---------------------------------------------------|
E-000--0-000--0-0-000-0-0--0-000--0-000--0-0-000-2~-|

G----------------------------------------|
D------------------------------2-2-------|
A---------2---------4---------2----5-4-2-|
E-2-0-2-02--2-0-2-02--2-0-2-02-----------|

G------------------------------------------4-----|
D--------------------------------------2-------4-|
A---------2---------4---------2--5-5-5---5---5---|
E-2-0-2-02--2-0-2-02--2-0-2-02-------------------|

G--------------------------------------|
D------------------------------2-2-----|
A---------2---------4---------2----5-4-|
E-2-0-2-02--2-0-2-02--2-0-2-02---------|

G------------------------------------------4-----|
D--------------------------------------2-------4-|
A---------2---------4---------2--5-5-5---5---5---|
E-2-0-2-02--2-0-2-02--2-0-2-02-------------------|

Verse x3
G-------------------4-44-2-444-7-444-7-2-22-0-222-0-22-0-------------------|
D-2-22-0-222-5-22-5--------------------------------------2-22-2-222-2-22-2-|
A--------------------------------------------------------------------------|
E--------------------------------------------------------------------------|

Chorus
G-77777777777777772222222222222222-------------------------------|
D---------------------------------22222222222222224444-----7-----|
A-----------------------------------------------------5555---555-|
E----------------------------------------------------------------|

G-77777777777777772222222222222222------------------------------------|
D---------------------------------------------------------------------|
A---------------------------------2-22-0-222-5-22-5-2-22-0-222-5-22-5-|
E---------------------------------------------------------------------|

G-77777777777777772222222222222222----------------------------|
D---------------------------------222222222222222244445555777-|
A-------------------------------------------------------------|
E-------------------------------------------------------------|

G-------------------------------------|
D-------------------------------------|
A-2-22-0-222-5-22-5-2-22-0-222-5-22-5-|
E-------------------------------------|

Break
G-------------------------------------|
D-2-22-0-222-5-22-5-------------------|
A-------------------2-22-0-222-5-22-5-|
E-------------------------------------|

G----------0-----------------------------------------------|
D-2-2-0-2----2-0--5-2-5-4--5-4-------------------2---2-0---|
A------------------------------5-------------------------2-|
E--------------------------------55555533335555-0-000------|

G-------------------------------------------------|
D-5-2-5-4--5-4------------------------------------|
A--------------5----------------------------------|
E----------------2-2-2-2-2-2-2-2--0-0-0-0-0-0-0-0-|

Verse x3

Chorus x1

Break x1

Intro x2

Final Chorus
G-77777777777777772222222222222222---------------------------------|
D---------------------------------2222222222222222-4444------7-----|
A-------------------------------------------------------5555---555-|
E------------------------------------------------------------------|

G-77777777777777772222222222222222------------------------------------|
D---------------------------------------------------------------------|
A---------------------------------2-22-0-222-5-22-5-2-22-0-222-5-22-5-|
E---------------------------------------------------------------------|

Break x4

Outro
G------------------------------------------------------------------|
D------------------------------------------------------------------|
A------------------------------------------------------------------|
E-000--0-000--0-0-000-0-0--0-000--0-000--0-0-000--0--0-000--0-002~-|
comments
print report bad tab
9 comments total. Showing first comments.
0 reply
j.p.j. II wrote on May 27 2007, 10:21 pm

not bad man, there are some things wrong but anyone can figure out those parts and fix them

0 reply
Frenchhorn07 wrote on June 2 2007, 11:36 am

I agreee not bad.

0 reply
Lydian_Mode wrote on June 12 2007, 01:05 pm

There are things wrong with this tab and it is hard to follow at parts.

I want to post or [tab]
guest
You may want to rate the tab now too:
select rating
Please do not post tabs as comments. Select "correction" instead!