Oops, an error
Loading. Please wait.

Far Cry Tab

version 1
version 1

Whole song

Interactive

by Rush
9,377 views 1 this week
no commentswrite comment
1 2 3 4 5
please rate
add to favorites
launch autoscroll
font size
0
reset
how to read this tab
guitar tuner
Tab Pro tools
  • play this tab
  • loop segment
  • change instrument
  • show fretboard
  • metronome
×
Best way to learn
"Far Cry"
Autoscroll
slow
fast
+/-
esc
set tempo
stop
Contributor
Song: Far Cry
 Artist: Rush
 Album: Snakes and Arrows (2007)
 Tabbed By: Ronnie Chesson

 Intro:
 -------------------------------------------------------|
 -------------------------------------------------------|
 -------------------------------------------------------|
 -2-2-2---2---2-2-2---2-2--2-2-2--2-2---2---2-2-2---2---|
 -2-2-2---2---2-2-2---2-2--2-2-2--2-2---2---2-2-2---2---|
 -0-0-0---0---0-0-0---0-0--0-0-0--0-0---0---0-0-0---0---|

 ----------------------0--------------------------------|
 ----------------------0--------------------------------|
 ----------------------3--------------------------------|
 -2-2-2---2-2---2-2-2--4---let chord ring---------------|
 -2-2-2---2-2---2-2-2--4--------------------------------|
 -0-0-0---0-0---0-0-0--2--------------------------------|

 -------------------------------------------------------|
 -------------------------------------------------------|
 -----------------------------------9--9--7-------------|
 -----------------------------------9--9--7-------------|
 ----------------------3------------7--7--5-------------|
 --2-0-2-0-4-2---0-2-0---2-0-2-0------------------------|

 -------------------------------------------------------|
 -------------------------------------------------------|
 -----------------------------------7--7--9--14---------|
 -----------------------------------7--7--9--14---------|
 ----------------------3------------5--5--7--12---------|
 --2-0-2-0-4-2---0-2-0---2-0-2-0------------------------|
  play the above 2 times but second time end with this:
 -------------------------------------------------------|
 -------------------------------------------------------|
 -----------0--------------0----------------------------|
 -------2--------------2--------------------------------|
 -----3-----------3-0-----------------------------------|
 -------------------------------------------------------|

 riff 2: for this riff, lifeson uses some kind of phasing
         effect. If you don't have a phaser a wah wah pedal
         will also work
 -------------------------------------------------------|
 -------------------------------------------------------|
 -------------------------------------------------------|
 ---2h3-2-2-2-2-2h3-2-2-2-2-2h3-2-2-2h3-2-2-2-2-2h3-2-2-|
 -------------------------------------------------------|
 -------------------------------------------------------|

 -------------------------------------------------------|
 -------------------------------------------------------|
 -------------------------------------------------------|
 -2-2-2h3-2-2-2h3-2-2-2-2-2h3-2-2-2-2-2h3-2-2---2--2--2-|
 -----------------------------------------------2--2--2-|
 -----------------------------------------------0--0--0-|
             play the above 3 times

 Chorus

 G5/D            D5          A5               B5
 Oooh           Oooh  Its a far cry from the world we
    G5                G5/D        D5         E5 D/E
 thought we'd inherit Oooh       Oooh  Its a far cry
 E5  D/E  E5  D/E   E5  D/E   E5  D/E    G5/D      D5
 from the way we thought we'd share it   Oooh     Oooh
           A5              B5      G5              E5
 you can almost feel the current flowing you can almost
 D/E  E5   D/E   E5  D/E    E                    D
 see the circuits blowin'  One day I feel Im on top of
                    A                       E       D
 the world and the next its falling in on me i can get
                F#sus         E                   D
 back on  i can get back on  one day i feel im ahead of
                    A                 E              D
 the wheel and the next its rolling over me    i can get
              F#sus
 back on i can get back on

 end Chorus with this:
 --------------------------------|
 --------------------------------|
 --------------------------------|
 ---2-2-2---2---2-2-2------------|
 ---0-0-0---0---0-0-0------------|
 ---0-0-0---0---0-0-0------------|

 repeat riff 2 through the Chorus but this time end the Chorus
 with the intro

 after the intro there is some sort of feedback solo like this i think:

 -------------------------------------------------------|
 -------------------------------------------------------|
 ----4b6---------------------4b6------------------------|
 -------------------------------------------------------|
 -------------------------------------------------------|
 -------------------------------------------------------|

 -------------------------------------------------------|
 ----5b7---------------------5b7------------------------|
 -------------------------------------------------------|
 -------------------------------------------------------|
 -------------------------------------------------------|
 -------------------------------------------------------|

 end the solo with that little thing that come after the
 cool riff in the beginning. listen to the song

 after the Chorus end the song with:
 -------------------------------------------------------|
 -------------------------------------------------------|
 -------------------------------------------------------|
 -2-2-2----2----2-2-2----2-2----2-2-2----2----2----2----|
 -2-2-2----2----2-2-2----2-2----2-2-2----2----2----2----|
 -0-0-0----0----0-0-0----0-0----0-0-0----0----0----0----|

 -------------------------------------------------------|
 -------------------------------------------------------|
 -------------------------------------------------------|
 -2-2-2----2----2-2-2-----2----2----2-2-2----2----2-----|
 -2-2-2----2----2-2-2-----2----2----2-2-2----2----2-----|
 -0-0-0----0----0-0-0-----0----0----0-0-0----0----0-----|

 ------------------------------------------0------------|
 ------------------------------------------0------------|
 ------------------------------------------3------------|
 -2-2-2----2----2---2-2---2-----2---2-2----4------------|
 -2-2-2----2----2---2-2---2-----2---2-2----4------------|
 -0-0-0----0----0---0-0---0-----0---0-0----2------------|

-----------------------------------------------------------------------------
comments
We did not receive enough feedback on this tab! Please rate:
print report bad tab
1 2 3 4 5
I want to post or [tab]
guest
You may want to rate the tab now too:
select rating
Please do not post tabs as comments. Select "correction" instead!