Oops, an error
Loading. Please wait.

Far Cry Bass Tab

version 2
version 2

Whole song

Interactive

by Rush
4,507 views 3 this week
2 commentsread comments
1 2 3 4 5
accurate
x 7
add to favorites
launch autoscroll
font size
0
reset
guitar tuner
Tab Pro tools
  • play this tab
  • loop segment
  • change instrument
  • show fretboard
  • metronome
×
Best way to learn
"Far Cry"
Autoscroll
slow
fast
+/-
esc
set tempo
stop
Contributor
Difficulty
intermediate
Intro
G|-------------------------------------------------------------------|
D|-------------------------------------------------------------------|
A|-------------------------------------------------------------------|
E|-000--0-000--0-0-000-0-0--0-000--0-000--0-0-000-2------------------|

Bridge
G|------------------------------------------------------|
D|-------------------------------------222--------------|
A|-------------------------3---------------5-4-2--------|
E|-2--0--2-0--4-2---0--2-0--2---0--2-0------------------|

G|---------------------------------------------------5----|
D|------------------------------------------2----3--------|
A|-------------------------3------------5-5---5----5------|
E|-2--0--2-0--4-2---0--2-0--2---0--2-0--------------------|


G|------------------------------------------------------|
D|-------------------------------------222--------------|
A|-------------------------3---------------5-4-2--------|
E|-2--0--2-0--4-2---0--2-0--2---0--2-0------------------|

G|--------------------------------------------0-------0----|
D|------------------------------------------2---2---2------|
A|-------------------------3--------------3-------3--------|
E|-2--0--2-0--4-2---0--2-0--2---0--2-0--4------------------|

Verse 3x
G|------------------4-44-2-444-6-4-6--2-22-0-222-0-2-0---------------------|
D|-2-22-0-222-5-2-5-------------------------------------2-02-02-2-2-5-2----|
A|-------------------------------------------------------------------------|
E|-------------------------------------------------------------------------|

Pre-Chorus
G|-777777777777777772222222222222222-------------------------|
D|----------------------------------2222222222222224444--7---|
A|-----------------------------------------------------55-5--|
E|-----------------------------------------------------------|

G|-777775h777775h7-5-2222222222222222-----------------------------------|
D|----------------------------------------------------------------------|
A|------------------------------------2-22-0-222-5-2-5-2-22-0-222-5-2-5-|
E|----------------------------------------------------------------------|

G|-777777777777777772222222222222222-------------------------|
D|----------------------------------22222222222222444455557--|
A|-----------------------------------------------------------|
E|-----------------------------------------------------------|

(After 1st Pre-Chorus only)
G|-------------------------------------|
D|-------------------------------------|
A|-2-22-0-222-5-2-5-2-22-0-222-5-2-5---|
E|-------------------------------------|

Chorus
G|-------------------------------------|
D|-2-22-0-222-5-2-5--5-55-4-5-55-7-5---|
A|-----------------------------------5-|
E|-------------------------------------|

G|--------------------------------------------------------------|
D|-2-222-2-5-2-5-2----------------------------------------------|
A|----------------2-22-0-222-5-2-5--5-55-4-5-55-7-5-------------|
E|-------------------------------------------------5--33332222--|

G|-------------------------------------|
D|-2-22-0-222-5-2-5--5-55-4-5-55-7-5---|
A|-----------------------------------5-|
E|-------------------------------------|

G|--------------------------------------------------------------|
D|-----2-0---0--------------------------------------------------|
A|---------2---2--2-22-0-222-5-2-5--5-55-4-5-55-7-5-------------|
E|-0-0---------------------------------------------5--22220000--|

(After 1st Chorus only.)
G|-------------|
D|-------------|
A|-------------|
E|-0-0-000-----|


Verse 3x

Pre Chorus 1x

Chorus 1x

Intro 1x

Bridge 1x


G|-777777777777777772222222222222222-------------------------|
D|----------------------------------2222222222222224444--7---|
A|-----------------------------------------------------55-5--|
E|-----------------------------------------------------------|

G|-777777777777777772222222222222222-----------------------------------|
D|---------------------------------------------------------------------|
A|-----------------------------------2-22-0-222-5-2-5-2-22-0-222-5-2-5-|
E|---------------------------------------------------------------------|

Chorus 2x

Outro
G|------------------------------------------------------------------|
D|------------------------------------------------------------------|
A|------------------------------------------------------------------|
E|-000--0-000--0-0-000-0-0--0-000--0-000--0-0-000--0--0-000--0-002--|

comments
print report bad tab
2 comments total.
+1 reply
ozzyismetal wrote on May 7 2008, 05:37 am

Awesome tab man!

0 reply
Eifler121 wrote on November 13 2010, 03:09 am

It would be a lot easier to play if you move all the twos and opens above the E string to sevens and fives. That's the way I've been playing it, and I find it to be a much easier reach.

I want to post or [tab]
guest
You may want to rate the tab now too:
select rating
Please do not post tabs as comments. Select "correction" instead!