Oops, an error
Loading. Please wait.

Far Cry Bass Tab

version 3
version 3

Whole song

Interactive

by Rush
2,193 views 9 this week
3 commentsread comments
1 2 3 4 5
1 last vote to show rating
add to favorites
launch autoscroll
font size
0
reset
guitar tuner
Autoscroll
slow
fast
+/-
esc
set tempo
stop
Help us to improve Ultimate-Guitar.com Take our survey!
×
Author
Difficulty
intermediate
My take on this epic song off Snakes & Arrows, most of it from watching Geddy Lee or
covers/mixed with tabs.
Key : ~ = let ring
      x = muted (or after a note, deaden, e.g. 0x)

Intro
G------------------------------------------------------------------|
D------------------------------------------------------------------|
A------------------------------------------------------------------|
E-000x--0x-000x--0x-0x-000x-0x-0x--0x-000x--0x-000x--0x-0x-000x-2~-|

Intro lick (play whole thing, then only first part, before pre-verse)
G|------------------------------------------|------------------------------------------|
D|------------------------------------------|---------------------------------------7\-|
A|--------------------3------------7-77-----|--------------------3------------55--7----|
E|-2-0-2-0-4--2-0-2-0---2-0-2-0-4-------7-5-|-2-0-2-0-4--2-0-2-0---2-0-2-0-4-----------|

Pre Verse (1x)
G|----------------------------------------------------|
D|--------------------------------------5-------5-----|
A|--------------------3-------------7-7---7---7---7---|
E|-2-0-2-0-4--2-0-2-0----2-0-2-0-4----------5---------|

Verse (3x)
G|------------------------------7---7--------------------------------|
D|------------5---5---9-99-7-99---9----7-77-5-77-5-7-5---------------|
A|--7-77-5-77---7--------------------------------------7-7777-77-----|
E|-------------------------------------------------------------------|

Chorus (1x)
G|--77777777--22222222----------------------------|--77777777--22222222------------------------|
D|--------------------------22222222-444----7---7-|--------------------------------------------|
A|---------------------------------------55---5---|------------------------222-0-22-5-2-5-(x2)-|
E|------------------------------------------------|--------------------------------------------|

G|-7-77-9-7-7777-9-7--22222222-------------------------------------------------|
D|---------------------------------22222222-444----7---7-----------------------|
A|----------------------------------------------55---5----222-0-22-5-2-5-(x2)--|
E|-----------------------------------------------------------------------------|

Bridge (from Chorus into verse again)                                     Into verse
G|-----------------------------------------------------------------------|-----------|
D|-2~-0-2-0-2-52-54-54----------------22-0-2-0-2-52-54-54----------------|-----------|
A|---------------------5----------------------------------5--------------|-----------|
E|------------------------555-3-5-3-5-----------------------222222222----|--000-0----|



Listen to the song to figure out which bits go where, it's better than me telling you.

Outro
G------------------------------------------------------------------|
D------------------------------------------------------------------|
A------------------------------------------------------------------|
E-000--0-000--0-0-000-0-0--0-000--0-000--0-0-000--0--0-000--0-002~-|

Enjoy it!
http://www.youtube.com/watch?v=INZ2ukqBysk
That's me. Not all that good yet but hopefully some pro can come and tell me at least
I'm playing it right.
Suggest correction
Give kudos to tab author, rate the tab!
1 2 3 4 5
comments
print report bad tab
3 comments total.
0 reply
Jasonbts 3,087 Feb 07, 2012 11:03 AM

It's... the basic idea. Lot's of wrong/missed notes though.

0 reply
GedLeefan 31 Feb 13, 2012 09:17 AM

lots of missed notes?
where?
bridge?
Cos the chorus, and verse are from watching Geddy Lee.
The intro is pretty much as well...

0 reply
Emilym80 398 Apr 15, 2012 03:08 AM

Sounds more accurate than the other two versions on here to me. Well done!

guest
You may want to rate the tab now too:
select rating
Wanna post a correction for this tab? Suggest correction