Oops, an error
Loading. Please wait.

Finding My Way Tab

version 2
version 2

Whole song

Interactive

by Rush
73 views 1 this week
no commentswrite comment
1 2 3 4 5
2 more votes to show rating
add to favorites
launch autoscroll
font size
0
reset
how to read this tab
guitar tuner
Autoscroll
slow
fast
+/-
esc
set tempo
stop
Help us to improve Ultimate-Guitar.com Take our survey!
×
Author
Difficulty
intermediate
------------------------------------------------------------------------------
                             Finding My Way- Rush
                                  Rush-1974
                  Words and Music By Geddy Lee and Alex Lifeson
-------------------------------------------------------------------------------
Tabbed by: Duane Baldwin
Email: duaneandjulie@gmail.net
Tuning: EADGBE

Guitar I (Over Driven)

Intro

Fade in
   .hr  .er  s   s     q   e  e  e  e  e  e     s s  s  s s  s  s s  s  s s   e
e|-----------5---5--|--5---------------------|------------------------------------|
B|-----------5---5--|--5---------------------|------------------------------------|
G|-----------2---2--|--2---------------------|------------------------------------|
D|-----------2---2--|--2---2--2--2--2--2--2--|--4p2-----4p2-----4p2-----4p2-------|
A|-----------0---0--|--0---0--0--0--0--0--0--|-------0-------0-------0-------3db--|
E|------------------|------------------------|------------------------------------|


    q   e  e  e  e  e  e     s s  s  s s  s  s s  s  s s   e
e|--5---------------------|------------------------------------|
B|--5---------------------|------------------------------------|
G|--2---------------------|------------------------------------|
D|--2---2--2--2--2--2--2--|--4p2-----4p2-----4p2-----4p2-------|
A|--0---0--0--0--0--0--0--|-------0-------0-------0-------3db--|
E|------------------------|------------------------------------|


    q   e  e  e  e  e  e     s s  s  s s  s  s s  s  s s   e        h       h
e|--5---------------------|------------------------------------|----3-------2------|
B|--5---------------------|------------------------------------|----0-------3------|
G|--2---------------------|------------------------------------|----0-------2------|
D|--2---2--2--2--2--2--2--|--4p2-----4p2-----4p2-----4p2-------|----0-------0------|
A|--0---0--0--0--0--0--0--|-------0-------0-------0-------3db--|----2--------------|
E|------------------------|------------------------------------|----3--------------|


    q   e  e  e  e  e  e     s s  s  s s  s  s s  s  s s   e
e|--5---------------------|------------------------------------|
B|--5---------------------|------------------------------------|
G|--2---------------------|------------------------------------|
D|--2---2--2--2--2--2--2--|--4p2-----4p2-----4p2-----4p2-------|
A|--0---0--0--0--0--0--0--|-------0-------0-------0-------3db--|
E|------------------------|------------------------------------|


    q   e  e  e  e  e  e     s s  s  s s  s  s s  s  s s   e
e|--5---------------------|------------------------------------|
B|--5---------------------|------------------------------------|
G|--2---------------------|------------------------------------|
D|--2---2--2--2--2--2--2--|--4p2-----4p2-----4p2-----4p2-------|
A|--0---0--0--0--0--0--0--|-------0-------0-------0-------3db--|
E|------------------------|------------------------------------|


    q   e  e  e  e  e  e     s s  s  s s  s  s s  s  s s   e        h       h
e|--5---------------------|------------------------------------|----3-------2------|
B|--5---------------------|------------------------------------|----0-------3------|
G|--2---------------------|------------------------------------|----0-------2------|
D|--2---2--2--2--2--2--2--|--4p2-----4p2-----4p2-----4p2-------|----0-------0------|
A|--0---0--0--0--0--0--0--|-------0-------0-------0-------3db--|----2--------------|
E|------------------------|------------------------------------|----3--------------|


    q   e  e  e  e  e  e     s s  s  s s  s  s s  s  s s   e
e|--5---------------------|------------------------------------|
B|--5---------------------|------------------------------------|
G|--2---------------------|------------------------------------|
D|--2---2--2--2--2--2--2--|--4p2-----4p2-----4p2-----4p2-------|
A|--0---0--0--0--0--0--0--|-------0-------0-------0-------3db--|
E|------------------------|------------------------------------|


    q   e  e  e  e  e  e     s s  s  s s  s  s s  s  s s   e
e|--5---------------------|------------------------------------|
B|--5---------------------|------------------------------------|
G|--2---------------------|------------------------------------|
D|--2---2--2--2--2--2--2--|--4p2-----4p2-----4p2-----4p2-------|
A|--0---0--0--0--0--0--0--|-------0-------0-------0-------3db--|
E|------------------------|------------------------------------|


    q   e  e  e  e  e  e     s s  s  s s  s  s s  s  s s   e        h       h
e|--5---------------------|------------------------------------|----3-------2------|
B|--5---------------------|------------------------------------|----0-------3------|
G|--2---------------------|------------------------------------|----0-------2------|
D|--2---2--2--2--2--2--2--|--4p2-----4p2-----4p2-----4p2-------|----0-------0------|
A|--0---0--0--0--0--0--0--|-------0-------0-------0-------3db--|----2--------------|
E|------------------------|------------------------------------|----3--------------|


    q   e  e  e  e  e  e     s s  s  s s  s  s s  s  s s   e
e|--5---------------------|------------------------------------|
B|--5---------------------|------------------------------------|
G|--2---------------------|------------------------------------|
D|--2---2--2--2--2--2--2--|--4p2-----4p2-----4p2-----4p2-------|
A|--0---0--0--0--0--0--0--|-------0-------0-------0-------3db--|
E|------------------------|------------------------------------|


    q   e  e  e  e  e  e     s s  s  s s  s  s s  s  s s   e
e|--5---------------------|------------------------------------|
B|--5---------------------|------------------------------------|
G|--2---------------------|------------------------------------|
D|--2---2--2--2--2--2--2--|--4p2-----4p2-----4p2-----4p2-------|
A|--0---0--0--0--0--0--0--|-------0-------0-------0-------3db--|
E|------------------------|------------------------------------|


    q   e  e  e  e  e  e     s s  s  s s  s  s s  s  s s   e        h       h
e|--5---------------------|------------------------------------|----3-------2------|
B|--5---------------------|------------------------------------|----0-------3------|
G|--2---------------------|------------------------------------|----0-------2------|
D|--2---2--2--2--2--2--2--|--4p2-----4p2-----4p2-----4p2-------|----0-------0------|
A|--0---0--0--0--0--0--0--|-------0-------0-------0-------3db--|----2--------------|
E|------------------------|------------------------------------|----3--------------|


1st Verse

    e   e    e   q    q  et.q       hte          e   e    e   q    q  et.q       hte     
e|--------------------2----3--|------2--------|--------------------2----3--|------2--------|
B|--------------------3----3--|------3--------|--------------------3----3--|------3--------|
G|--2---2--------2----2----0--|------2--------|--2---2--------2----2----0--|------2--------|
D|--2---2--------2----0----0--|------0--------|--2---2--------2----0----0--|------0--------|
A|--0---0--------0------------|---------------|--0---0--------0------------|---------------|
E|-----------3----------------|---------------|-----------3----------------|---------------|


    e   e    e   q    q  et.q       hte          e   e    e   q    q  et.q       hte     
e|--------------------2----3--|------2--------|--------------------2----3--|------2--------|
B|--------------------3----3--|------3--------|--------------------3----3--|------3--------|
G|--2---2--------2----2----0--|------2--------|--2---2--------2----2----0--|------2--------|
D|--2---2--------2----0----0--|------0--------|--2---2--------2----0----0--|------0--------|
A|--0---0--------0------------|---------------|--0---0--------0------------|---------------|
E|-----------3----------------|---------------|-----------3----------------|---------------|


    e   e   e q   q  et.q   .q     q       e   e   e q   q  et.q   .q     q
e|-----------------------|---3-----3----|-----------------------|---3-----3----|
B|-----------------------|---3-----3----|-----------------------|---3-----3----|
G|--5---5-----5---5---2--|---0-----0----|--5---5-----5---5---2--|---0-----0----|
D|--5---5-----5---5---3--|---0-----0----|--5---5-----5---5---3--|---0-----0----|
A|--3---3---0h3---3---3--|---2-----2----|--3---3---oh3---3---3--|---2-----2----|
E|--------------------1--|---3-----3----|--------------------1--|---3-----3----|


   e   e    e   q    q  et.q       hte          e   e    e   q    q  et.q       hte     
e|--------------------2----3--|------2--------|--------------------2----3--|------2--------|
B|--------------------3----3--|------3--------|--------------------3----3--|------3--------|
G|--2---2--------2----2----0--|------2--------|--2---2--------2----2----0--|------2--------|
D|--2---2--------2----0----0--|------0--------|--2---2--------2----0----0--|------0--------|
A|--0---0--------0------------|---------------|--0---0--------0------------|---------------|
E|-----------3----------------|---------------|-----------3----------------|---------------|


1st Chorus


    .q    hte      .q   hte        q   e   q   e  qte       q    h     s   s
e|-------------|---------------|------------------------|---3----3-----5---5--|
B|-------------|---3-----3-----|------------------------|---0----0-----5---5--|
G|--2-----2----|---0-----0-----|---2-------2-------2----|---0----0-----2---2--|
D|--3-----3----|---0-----0-----|---2-------2-------2----|--------------2---2--|
A|--3-----3----|---2-----2-----|---0-------0-------0----|--------------0---0--|
E|--1-----1----|---3-----3-----|-------3-------3--------|---------------------|


Intro Reprise

    q   e  e  e  e  e  e     s s  s  s s  s  s s  s  s s   e
e|--5---------------------|------------------------------------|
B|--5---------------------|------------------------------------|
G|--2---------------------|------------------------------------|
D|--2---2--2--2--2--2--2--|--4p2-----4p2-----4p2-----4p2-------|
A|--0---0--0--0--0--0--0--|-------0-------0-------0-------3db--|
E|------------------------|------------------------------------|


    q   e  e  e  e  e  e     s s  s  s s  s  s s  s  s s   e
e|--5---------------------|------------------------------------|
B|--5---------------------|------------------------------------|
G|--2---------------------|------------------------------------|
D|--2---2--2--2--2--2--2--|--4p2-----4p2-----4p2-----4p2-------|
A|--0---0--0--0--0--0--0--|-------0-------0-------0-------3db--|
E|------------------------|------------------------------------|


    q   e  e  e  e  e  e     s s  s  s s  s  s s  s  s s   e        h       h
e|--5---------------------|------------------------------------|----3-------2------|
B|--5---------------------|------------------------------------|----0-------3------|
G|--2---------------------|------------------------------------|----0-------2------|
D|--2---2--2--2--2--2--2--|--4p2-----4p2-----4p2-----4p2-------|----0-------0------|
A|--0---0--0--0--0--0--0--|-------0-------0-------0-------3db--|----2--------------|
E|------------------------|------------------------------------|----3--------------|


    q   e  e  e  e  e  e     s s  s  s s  s  s s  s  s s   e
e|--5---------------------|------------------------------------|
B|--5---------------------|------------------------------------|
G|--2---------------------|------------------------------------|
D|--2---2--2--2--2--2--2--|--4p2-----4p2-----4p2-----4p2-------|
A|--0---0--0--0--0--0--0--|-------0-------0-------0-------3db--|
E|------------------------|------------------------------------|


    q   e  e  e  e  e  e     s s  s  s s  s  s s  s  s s   e
e|--5---------------------|------------------------------------|
B|--5---------------------|------------------------------------|
G|--2---------------------|------------------------------------|
D|--2---2--2--2--2--2--2--|--4p2-----4p2-----4p2-----4p2-------|
A|--0---0--0--0--0--0--0--|-------0-------0-------0-------3db--|
E|------------------------|------------------------------------|


    q   e  e  e  e  e  e     s s  s  s s  s  s s  s  s s   e        h       h
e|--5---------------------|------------------------------------|----3-------2------|
B|--5---------------------|------------------------------------|----0-------3------|
G|--2---------------------|------------------------------------|----0-------2------|
D|--2---2--2--2--2--2--2--|--4p2-----4p2-----4p2-----4p2-------|----0-------0------|
A|--0---0--0--0--0--0--0--|-------0-------0-------0-------3db--|----2--------------|
E|------------------------|------------------------------------|----3--------------|


    q   e  e  e  e  e  e     s s  s  s s  s  s s  s  s s   e
e|--5---------------------|------------------------------------|
B|--5---------------------|------------------------------------|
G|--2---------------------|------------------------------------|
D|--2---2--2--2--2--2--2--|--4p2-----4p2-----4p2-----4p2-------|
A|--0---0--0--0--0--0--0--|-------0-------0-------0-------3db--|
E|------------------------|------------------------------------|


    q   e  e  e  e  e  e     s s  s  s s  s  s s  s  s s   e
e|--5---------------------|------------------------------------|
B|--5---------------------|------------------------------------|
G|--2---------------------|------------------------------------|
D|--2---2--2--2--2--2--2--|--4p2-----4p2-----4p2-----4p2-------|
A|--0---0--0--0--0--0--0--|-------0-------0-------0-------3db--|
E|------------------------|------------------------------------|


    q   e  e  e  e  e  e     s s  s  s s  s  s s  s  s s   e        h       h
e|--5---------------------|------------------------------------|----3-------2------|
B|--5---------------------|------------------------------------|----0-------3------|
G|--2---------------------|------------------------------------|----0-------2------|
D|--2---2--2--2--2--2--2--|--4p2-----4p2-----4p2-----4p2-------|----0-------0------|
A|--0---0--0--0--0--0--0--|-------0-------0-------0-------3db--|----2--------------|
E|------------------------|------------------------------------|----3--------------|


2nd Verse

    e   e    e   q    q  et.q       hte          e   e    e   q    q  et.q       hte     
e|--------------------2----3--|------2--------|--------------------2----3--|------2--------|
B|--------------------3----3--|------3--------|--------------------3----3--|------3--------|
G|--2---2--------2----2----0--|------2--------|--2---2--------2----2----0--|------2--------|
D|--2---2--------2----0----0--|------0--------|--2---2--------2----0----0--|------0--------|
A|--0---0--------0------------|---------------|--0---0--------0------------|---------------|
E|-----------3----------------|---------------|-----------3----------------|---------------|


    e   e    e   q    q  et.q       hte          e   e    e   q    q  et.q       hte     
e|--------------------2----3--|------2--------|--------------------2----3--|------2--------|
B|--------------------3----3--|------3--------|--------------------3----3--|------3--------|
G|--2---2--------2----2----0--|------2--------|--2---2--------2----2----0--|------2--------|
D|--2---2--------2----0----0--|------0--------|--2---2--------2----0----0--|------0--------|
A|--0---0--------0------------|---------------|--0---0--------0------------|---------------|
E|-----------3----------------|---------------|-----------3----------------|---------------|


    e   e   e q   q  et.q   .q     q       e   e   e q   q  et.q   .q     q
e|-----------------------|---3-----3----|-----------------------|---3-----3----|
B|-----------------------|---3-----3----|-----------------------|---3-----3----|
G|--5---5-----5---5---2--|---0-----0----|--5---5-----5---5---2--|---0-----0----|
D|--5---5-----5---5---3--|---0-----0----|--5---5-----5---5---3--|---0-----0----|
A|--3---3---0h3---3---3--|---2-----2----|--3---3---oh3---3---3--|---2-----2----|
E|--------------------1--|---3-----3----|--------------------1--|---3-----3----|


   e   e    e   q    q  et.q       hte          e   e    e   q    q  et.q       hte     
e|--------------------2----3--|------2--------|--------------------2----3--|------2--------|
B|--------------------3----3--|------3--------|--------------------3----3--|------3--------|
G|--2---2--------2----2----0--|------2--------|--2---2--------2----2----0--|------2--------|
D|--2---2--------2----0----0--|------0--------|--2---2--------2----0----0--|------0--------|
A|--0---0--------0------------|---------------|--0---0--------0------------|---------------|
E|-----------3----------------|---------------|-----------3----------------|---------------|


2nd Chorus


    .q    hte      .q   hte        q   e   q   e  qte       q    h     s   s
e|-------------|---------------|------------------------|---3----3-----5---5--|
B|-------------|---3-----3-----|------------------------|---0----0-----5---5--|
G|--2-----2----|---0-----0-----|---2-------2-------2----|---0----0-----2---2--|
D|--3-----3----|---0-----0-----|---2-------2-------2----|--------------2---2--|
A|--3-----3----|---2-----2-----|---0-------0-------0----|--------------0---0--|
E|--1-----1----|---3-----3-----|-------3-------3--------|---------------------|


1st Bridge

    e    q    q   q   e     e    q   q   q   e      e    q   q   q   e      e    q   q   q   e
e|-----------------------|-----------------------|-----------------------|-----------------------|
B|-----------------------|-----------------------|-----------------------|-----------------------|
G|--2----2---------------|--7----7---------------|--2----2---------------|--7----7---------------|
D|--2----2---------------|--7----7---------------|--2----2---------------|--7----7---------------|
A|--0----0---4---5---6---|--5----5---------------|--0----0---4---5---6---|--5----5---------------|
E|-----------------------|-----------2---3---4---|-----------------------|-----------2---3---4---|

    e    q    q   q   e     e    q   q   q   e      e    q   q   q   e      e    q   q   q   e
e|-----------------------|-----------------------|-----------------------|-----------------------|
B|-----------------------|-----------------------|-----------------------|-----------------------|
G|--2----2---------------|--7----7---------------|--2----2---------------|--7----7---------------|
D|--2----2---------------|--7----7---------------|--2----2---------------|--7----7---------------|
A|--0----0---4---5---6---|--5----5---------------|--0----0---4---5---6---|--5----5---------------|
E|-----------------------|-----------2---3---4---|-----------------------|-----------2---3---4---|

    e    q    q   q   e     e    q   q   q   e      e    q   q   q   e      e    q   q   q   e
e|-----------------------|-----------------------|-----------------------|-----------------------|
B|-----------------------|-----------------------|-----------------------|-----------------------|
G|-----------------------|--5----5---------------|-----------------------|--5----5---------------|
D|--5----5---------------|--5----5---------------|--5----5---------------|--5----5---------------|
A|--5----5---2---3---4---|--3----3---------------|--5----5---2---3---4---|--3----3---------------|
E|--3----3---------------|-----------0---1---2---|--3----3---------------|-----------0---1---2---|


    e    q    q   q   e     e    q   q   q   e      e    q   q   q   e      e    q   q   q   e
e|-----------------------|-----------------------|-----------------------|-----------------------|
B|-----------------------|-----------------------|-----------------------|-----------------------|
G|--2----2---------------|--7----7---------------|--2----2---------------|--7----7---------------|
D|--2----2---------------|--7----7---------------|--2----2---------------|--7----7---------------|
A|--0----0---4---5---6---|--5----5---------------|--0----0---4---5---6---|--5----5---------------|
E|-----------------------|-----------2---3---4---|-----------------------|-----------2---3---4---|


3rd Chorus


    .q    hte      .q   hte        q   e   q   e  qte       q   hte  
e|-------------|---------------|------------------------|---3----3----|
B|-------------|---3-----3-----|------------------------|---0----0----|
G|--2-----2----|---0-----0-----|---2-------2-------2----|---0----0----|
D|--3-----3----|---0-----0-----|---2-------2-------2----|-------------|
A|--3-----3----|---2-----2-----|---0-------0-------0----|-------------|
E|--1-----1----|---3-----3-----|-------3-------3--------|-------------|


    .q    hte      .q   hte        q   e   q   e  qte       q   hte    
e|-------------|---------------|------------------------|---3----3----|
B|-------------|---3-----3-----|------------------------|---0----0----|
G|--2-----2----|---0-----0-----|---2-------2-------2----|---0----0----|
D|--3-----3----|---0-----0-----|---2-------2-------2----|-------------|
A|--3-----3----|---2-----2-----|---0-------0-------0----|-------------|
E|--1-----1----|---3-----3-----|-------3-------3--------|-------------|


Solo

     h    e    e    e  er    er    e    e     e     e    e    s     .e
e|------------------------|-------------15---15---------15--------------|
B|-------13---15---13-----|-------15b-------------15b--------15br---13--|
G|--14--------------------|---------------------------------------------|
D|------------------------|---------------------------------------------|
A|------------------------|---------------------------------------------|
E|------------------------|---------------------------------------------|


     e    e    e    e    q    e    e      e      e    e    e    er   e   e   s s
e|------------------------------------|-------------------------------------------|
B|--15---13------------------13---15--|--15br---13---15--------------5---5---8p5--|
G|------------14---12---14------------|-------------------14----------------------|
D|------------------------------------|-------------------------------------------|
A|------------------------------------|-------------------------------------------|
E|------------------------------------|-------------------------------------------|


    e   e   s s   e   s s   e   e   ete      e   e   q  s s    s s s   s
e|----------------------------------------|-------------------------------|
B|------5---8p5---------------------------|-------------------------------|
G|--7-------------7---7p5-------5---6twb--|------5---5---------5h7p5------|
D|--------------------------7-------------|--7-----------5h7-----------7--|
A|----------------------------------------|-------------------------------|
E|----------------------------------------|-------------------------------|


    e   t t s   e   e   e   e   e   e     e   e   e  e   q     s   s s   s
e|-------------------------------------|------------------------------------|
B|-------------------------------------|------------------------------------|
G|--7---5h7p5-------5------------------|------------------------------------|
D|--------------7-------7---6---5------|------------------------------------|
A|----------------------------------7--|--6---5---3--5---5qb---3---------3--|
E|-------------------------------------|---------------------------3h5------|


    q   s s   e   s s   e   s s   e     s s   e    h       s s   s s
e|-----------------------------------|--------------------------------|
B|-----------------------------------|--------------------------------|
G|-----------------------------------|------------5/1qbr--------------|
D|--------------------------------5--|--7p5----------------------5h7--|
A|--3---------3---5p3-------5/7------|--------7------------5h7--------|
E|------3/5-------------5------------|--------------------------------|


    q   e   e   e   e   s s   e     s s   e   e   q   e    e   s s
e|-------------------------------|----------------------------------|
B|------------------5---8p5------|-------------------------5---8p5--|
G|--5-------5---7-------------7--|--7p5-------5---5---7b------------|
D|------7------------------------|--------7-------------------------|
A|-------------------------------|----------------------------------|
E|-------------------------------|----------------------------------|


     e   e   s s   e    e   s s   e    e      e   e   s s   e   e   s s   e   e
e|----------------------------------------|-------5---8p5-------5----------------|
B|-------5---8p5--------5---8p5--------5--|--8b-------------8-------8p5-------5--|
G|--7b-------------7b-------------7b------|-------------------------------7------|
D|----------------------------------------|--------------------------------------|
A|----------------------------------------|--------------------------------------|
E|----------------------------------------|--------------------------------------|


    s s   e   e   e   s s   e    qte      s s   e   h   er
e|-------------------------------------|--------------------|
B|------------7---5--------------------|--------------------|
G|--7p5-------7---5---------5---9/1qb--|--------5---5-------|
D|--------7-----------5h7--------------|--5h7---------------|
A|-------------------------------------|--------------------|
E|-------------------------------------|--------------------|


2nd Bridge


    e   e  er  e  e   er   qth      e   e   q      e   e  er  e  e   er   qth      e   e   q
e|-------------------------------|--------------|-------------------------------|--------------|
B|------------------------7hbr---|--------------|------------------------7hbr---|--------------|
G|-----------------5------7hbr---|--5---7---5---|-----------------5------7hbr---|--5---7---5---|
D|--5---7------7-----------------|--------------|--5---7------7-----------------|--------------|
A|-------------------------------|--------------|-------------------------------|--------------|
E|-------------------------------|--------------|-------------------------------|--------------|


  e   e  er  e  e   er   qth      e   e   q      e   e  er  e  e   er   qth      e   e   q
e|-------------------------------|--------------|-------------------------------|--------------|
B|------------------------7hbr---|--------------|------------------------7hbr---|--------------|
G|-----------------5------7hbr---|--5---7---5---|-----------------5------7hbr---|--5---7---5---|
D|--5---7------7-----------------|--------------|--5---7------7-----------------|--------------|
A|-------------------------------|--------------|-------------------------------|--------------|
E|-------------------------------|--------------|-------------------------------|--------------|

    e   e  er e  e   er   qth       e   e   q      e   e  er  e  e   er   qth      e   e   q
e|-------------------------------|--------------|-------------------------------|--------------|
B|---------------8--------10br---|--8---10---8--|-----------------8-------10br--|--8---10---8--|
G|--7---9-----9------------------|--------------|--7---9------7-----------------|--------------|
D|-------------------------------|--------------|-------------------------------|--------------|
A|-------------------------------|--------------|-------------------------------|--------------|
E|-------------------------------|--------------|-------------------------------|--------------|


    e   e  er  e  e   er   qth      e   e   q      e   e  er  e  e   er   qth      e   e   q
e|-------------------------------|--------------|------------------------7hbr---|--------------|
B|------------------------7hbr---|--------------|------------------------7hbr---|--5---7---5---|
G|-----------------5------7hbr---|--5---7---5---|-----------------5-------------|--------------|
D|--5---7------7-----------------|--------------|--5---7------7-----------------|--------------|
A|-------------------------------|--------------|-------------------------------|--------------|
E|-------------------------------|--------------|-------------------------------|--------------|


4th Chorus


    .q    hte      .q   hte        .q     hte        q   hte  
e|-------------|---------------|-----------------|---3----3----|
B|-------------|---3-----3-----|-----------------|---0----0----|
G|--2-----2----|---0-----0-----|---2-------2-----|---0----0----|
D|--3-----3----|---0-----0-----|---2-------2-----|-------------|
A|--3-----3----|---2-----2-----|---0-------0-----|-------------|
E|--1-----1----|---3-----3-----|-----------------|-------------|


    .q    hte      .q   hte        q   e   q   e  qte       q    h     s   s
e|-------------|---------------|------------------------|---3----3-----5---5--|
B|-------------|---3-----3-----|------------------------|---0----0-----5---5--|
G|--2-----2----|---0-----0-----|---2-------2-------2----|---0----0-----2---2--|
D|--3-----3----|---0-----0-----|---2-------2-------2----|--------------2---2--|
A|--3-----3----|---2-----2-----|---0-------0-------0----|--------------0---0--|
E|--1-----1----|---3-----3-----|-------3-------3--------|---------------------|


Intro Reprise

    q   e  e  e  e  e  e     s s  s  s s  s  s s  s  s s   e
e|--5---------------------|------------------------------------|
B|--5---------------------|------------------------------------|
G|--2---------------------|------------------------------------|
D|--2---2--2--2--2--2--2--|--4p2-----4p2-----4p2-----4p2-------|
A|--0---0--0--0--0--0--0--|-------0-------0-------0-------3db--|
E|------------------------|------------------------------------|


    q   e  e  e  e  e  e     s s  s  s s  s  s s  s  s s   e
e|--5---------------------|------------------------------------|
B|--5---------------------|------------------------------------|
G|--2---------------------|------------------------------------|
D|--2---2--2--2--2--2--2--|--4p2-----4p2-----4p2-----4p2-------|
A|--0---0--0--0--0--0--0--|-------0-------0-------0-------3db--|
E|------------------------|------------------------------------|


    q   e  e  e  e  e  e     s s  s  s s  s  s s  s  s s   e        h       h
e|--5---------------------|------------------------------------|----3-------2------|
B|--5---------------------|------------------------------------|----0-------3------|
G|--2---------------------|------------------------------------|----0-------2------|
D|--2---2--2--2--2--2--2--|--4p2-----4p2-----4p2-----4p2-------|----0-------0------|
A|--0---0--0--0--0--0--0--|-------0-------0-------0-------3db--|----2--------------|
E|------------------------|------------------------------------|----3--------------|

    q   e  e  e  e  e  e     s s  s  s s  s  s s  s  s s   e
e|--5---------------------|------------------------------------|
B|--5---------------------|------------------------------------|
G|--2---------------------|------------------------------------|
D|--2---2--2--2--2--2--2--|--4p2-----4p2-----4p2-----4p2-------|
A|--0---0--0--0--0--0--0--|-------0-------0-------0-------3db--|
E|------------------------|------------------------------------|


    q   e  e  e  e  e  e     s s  s  s s  s  s s  s  s s   e
e|--5---------------------|------------------------------------|
B|--5---------------------|------------------------------------|
G|--2---------------------|------------------------------------|
D|--2---2--2--2--2--2--2--|--4p2-----4p2-----4p2-----4p2-------|
A|--0---0--0--0--0--0--0--|-------0-------0-------0-------3db--|
E|------------------------|------------------------------------|


    q   e  e  e  e  e  e     s s  s  s s  s  s s  s  s s   e        h       h
e|--5---------------------|------------------------------------|----3-------2------|
B|--5---------------------|------------------------------------|----0-------3------|
G|--2---------------------|------------------------------------|----0-------2------|
D|--2---2--2--2--2--2--2--|--4p2-----4p2-----4p2-----4p2-------|----0-------0------|
A|--0---0--0--0--0--0--0--|-------0-------0-------0-------3db--|----2--------------|
E|------------------------|------------------------------------|----3--------------|

    q   e  e  e  e  e  e     s s  s  s s  s  s s  s  s s   e
e|--5---------------------|------------------------------------|
B|--5---------------------|------------------------------------|
G|--2---------------------|------------------------------------|
D|--2---2--2--2--2--2--2--|--4p2-----4p2-----4p2-----4p2-------|
A|--0---0--0--0--0--0--0--|-------0-------0-------0-------3db--|
E|------------------------|------------------------------------|


    q   e  e  e  e  e  e     s s  s  s s  s  s s  s  s s   e
e|--5---------------------|------------------------------------|
B|--5---------------------|------------------------------------|
G|--2---------------------|------------------------------------|
D|--2---2--2--2--2--2--2--|--4p2-----4p2-----4p2-----4p2-------|
A|--0---0--0--0--0--0--0--|-------0-------0-------0-------3db--|
E|------------------------|------------------------------------|


    q   e  e  e  e  e  e     s s  s  s s  s  s s  s  s s   e        h       h
e|--5---------------------|------------------------------------|----3-------2------|
B|--5---------------------|------------------------------------|----0-------3------|
G|--2---------------------|------------------------------------|----0-------2------|
D|--2---2--2--2--2--2--2--|--4p2-----4p2-----4p2-----4p2-------|----0-------0------|
A|--0---0--0--0--0--0--0--|-------0-------0-------0-------3db--|----2--------------|
E|------------------------|------------------------------------|----3--------------|


Outro


    e   e    e   q    q  et.q       hte          e   e    e   q    q  et.q       hte     
e|--------------------2----3--|------2--------|--------------------2----3--|------2--------|
B|--------------------3----3--|------3--------|--------------------3----3--|------3--------|
G|--2---2--------2----2----0--|------2--------|--2---2--------2----2----0--|------2--------|
D|--2---2--------2----0----0--|------0--------|--2---2--------2----0----0--|------0--------|
A|--0---0--------0------------|---------------|--0---0--------0------------|---------------|
E|-----------3----------------|---------------|-----------3----------------|---------------|


    e   e    e   q    q  et.q       hte          e   e    e   q    hr      
e|--------------------2----3--|------2--------|------------------------|
B|--------------------3----3--|------3--------|------------------------|
G|--2---2--------2----2----0--|------2--------|--2---2--------2--------|
D|--2---2--------2----0----0--|------0--------|--2---2--------2--------|
A|--0---0--------0------------|---------------|--0---0--------0--------|
E|-----------3----------------|---------------|-----------3------------|


************************************

| x   Dead note
| g   Grace note
| (n) Ghost note
| h   Hammer-on
| p   Pull-off
| r   Release
| >   Accented note
| t   Tapping
| b   Bend
| br  Bend release
| pb  Pre-bend
| pbr Pre-bend release
| /   Slide up
| \   Slide down
| ~   Vibrato
| s   Slap
| P   Pop
| PM  Palm mute
| TR  Trill
| N   Tremolo

************************************
Suggest correction
Give kudos to tab author, rate the tab!
1 2 3 4 5
comments
print report bad tab
guest
You may want to rate the tab now too:
select rating
Wanna post a correction for this tab? Suggest correction