Oops, an error
Loading. Please wait.
We have an official Freewill tab made by UG professional guitarists. Check out the tab »
×
by Rush
4,057 views 6 this week
no commentswrite comment
1 2 3 4 5
2 more votes to show rating
add to favorites
×
Save as Personal and add changes to this tab that will be seen only by you. Learn more ›
×
You can save this tab as Personal to edit and correct it or add notes. All changes will be seen only by you. Learn more »
launch autoscroll
font size
0
reset
how to read this tab
guitar tuner
backing track
0:00
0:00
edit
Autoscroll
slow
fast
+/-
esc
set tempo
stop
Author
Difficulty
Song: Freewill
Artist: Rush
Album: Permanent Waves
Section: Guitar Solo
Tabber: SG-boy


**Tablature Legend is at the bottom**



 Guitar Solo
  Gtr IGtr IV   Gtr IIIGtr IV         Gtr IIIGtr IV   Gtr III
        /       /        /            /       /       /1________/   |
|-----------------------------------|-----------------------------------|
|-15--------------------------------|-----------------------------------|
|--0---24--(24)-0--(0)-<12>--(<12>)-|-0--(0)-12--(12)-0----(0)-(0)-(0)--|
|-----------------------------------|-----------------------------------|
|-----------------------------------|-----------------------------------|
|-----------------------------------|-----------------------------------|


                             Gtr IVGtr III
               ~~~~~~~
|----------------------------------10----------|
|-13p12p10----12-(12)--10-12-13p10-------10-12-|
|----------12-------------------------12-------|
|----------------------------------------------|
|----------------------------------------------|
|----------------------------------------------|


                 ~~     ~~                            ~~
|-----------------------------|-----------------------------------------------------15-(15)--|
|------------13-15--13-15--13-|-15b17==(15)-(15)r-15-13--15-15b17==(15)-(15)r-15-13----------|
|-10---(10)-------------------|--------------------------------------------------------------|
|-----------------------------|--------------------------------------------------------------|
|-----------------------------|--------------------------------------------------------------|
|-----------------------------|--------------------------------------------------------------|


                             ~~~~~~~
|-(15)-13h15p13-12-13h15p13--------------------|
|---------------------------13-(13)---12-13-12-|
|----------------------------------------------|
|----------------------------------------------|
|----------------------------------------------|
|----------------------------------------------|


|--------------------------------------------------------------------|
|--------------------------------------------------------------------|
|-12b14===(12)-(12)-12r-12h14p12b13==(12)rp0--(0)h4-(4)b5===(4)-(4)rp|
|--------------------------------------------------------------------|
|--------------------------------------------------------------------|
|--------------------------------------------------------------------|


  /1.5_________\0.25___/   \0.25____/   \0.25___/   |
|-------------------------------------------------------|
|-------------------------------------------------------|
|-0-------(0)-(0)-----(0)-(0)------(0)-(0)-----(0)-(0)--|
|-------------------------------------------------------|
|-------------------------------------------------------|
|-------------------------------------------------------|


16p15p13----13-17-15p13-------13-13----------15p13----13-17-17-15-13-------------------------13-17|
---------15-------------16b18-------13-13-15-------15----------------17-17-13h15-18-18p12-15------|
--------------------------------------------------------------------------------------------------|
--------------------------------------------------------------------------------------------------|
--------------------------------------------------------------------------------------------------|
--------------------------------------------------------------------------------------------------|


|-15-------------------10-13-10-10-------------------------------------|
|----12-17p13s10-10-13-------------13-(13)-10-10----12-----------------|
|------------------------------------------------12----0-9s7-5---2p0---|
|--------------------------------------------------------7s5-2-0-----4-|
|----------------------------------------------------------------------|
|----------------------------------------------------------------------|


|-------------------------------------------------------------------|
|-------------------------------------------------------------------|
|-0-------5-(5)-------2p0---0h2p0-x-4-2-2-0-0-4-2-0-2-4-5-5-4-5-7---|
|---0h2-2-------0-2-3-----3-----------------------------------------|
|-------------------------------------------------------------------|
|-------------------------------------------------------------------|


|----------------------------------------------------------------13-13-14-10-------12-----|
|----------------------------------------------------10h12p10-12-------------13-13----13\-|
|-7-5-7-7-9-9---9-7-9-10-10-9-10-10s12-(12)-10-10-12--------------------------------------|
|-------------9---------------------------------------------------------------------------|
|-----------------------------------------------------------------------------------------|
|-----------------------------------------------------------------------------------------|


  Gtrs I, III
|--------------------------------10-|
|-----8-----13-13-13-0-8-8s6-6/-----|
|-5-7-7-/12-12-12-12---7-7s5-5/-----|
|-7-9-9-/14-14-14-14-----9s7-7/-----|
|-----------------------------------|
|-----------------------------------|


  Gtr III
                                                                ~~~~~~~~~~~~~
|-13p10-10---------10h13-10----------10-13p10----10-13b15=====(13)----(13)r\-|
|----------13p10------------13-10-------------12-----------------------------|
|---------------------------------13-----------------------------------------|
|----------------------------------------------------------------------------|
|----------------------------------------------------------------------------|
|----------------------------------------------------------------------------|
|
| Gtr I
|----------------------------------------------------------------------------|
|----------------8--------8----10-------10----10----13-----13--13--12--12\---|
|--5-----7-------7--------7----10-------10----10----12-----12--12--12--12\---|
|--7-----9-------9--------9----10-------10----10----14-----14--14--12--12\---|
|----------------------------------------------------------------------------|
|----------------------------------------------------------------------------|


|-------------------------------0-20-|
|-----8-----13-13-13-0-12s==10/-0----|
|-5-7-7-/12-12-12-12---12s==10/------|
|-7-9-9-/14-14-14-14-----------------|
|------------------------------------|
|------------------------------------|
|
|------------------------------------|
|-----8-----13-13-13-0--8-8s=6--6----|
|-5-7-7-/12-12-12-12----7-7s=5--5----|
|-7-9-9-/14-14-14-14------9s=7--7--0-|
|------------------------------------|
|------------------------------------|


                    ~~~~~~~~~
|-20-20b22-20b22==(20)-(20)r-17---17-20-20b21-20b22-----22--|-----------------------------------|
|----------------------------------------------------x/-----|-----8-----13-13-13-0-12-----0-----|
|-------------------------------0--------------------x/-----|-5-7-7-/12-12-12-12---12---0---0-0-|
|----------------------------------------------------x/-----|-7-9-9-/14-14-14-14----------------|
|-----------------------------------------------------------|-----------------------------------|
|-----------------------------------------------------------|-----------------------------------|
|
|-----------------------------------------------------------|-----------------------------------|
|-----------8-------8---10---10---10-13-13----13----12--12\-|-----8-----13-13-13-0--8-8s6-6-----|
|--5--7-----7-------7---10---10---10-12-12----12----12--12\-|-5-7-7-/12-12-12-12----7-7s5-5-----|
|--7--9-----9-------9---10---10---10-14-14----14----12--12\-|-7-9-9-/14-14-14-14------9s7-7---0-|
|-----------------------------------------------------------|-----------------------------------|
|-----------------------------------------------------------|-----------------------------------|


                        ~~~~~~~~~
|-----------------------------------------------10-------------------|
|-13b15==(13)r-13b15==(13)-(13)r-13----10-13b14----12-10h12p10-(10)\-|
|--------------------------------------------------------------------|
|--------------------------------------------------------------------|
|--------------------------------------------------------------------|
|--------------------------------------------------------------------|
|
|--------------------------------------------------------------------|
|---------------8-------8---10------10----10----13-13-13----12--12\--|
|--5-------7----7-------7---10------10----10----12-12-12----12--12\--|
|--7-------9----9-------9---10------10----10----14-14-14----12--12\--|
|--------------------------------------------------------------------|
|--------------------------------------------------------------------|


|----------------------------------12---|
|-----8-----13-13-13-0-12\------10-12---|
|-5-7-7-/12-12-12-12---12\------10----0-|
|-7-9-9-/14-14-14-14---------10---------|
|---------------------------------------|
|---------------------------------------|
|
|---------------------------------------|
|-----8-----13-13-13-0--8--8s=6--6------|
|-5-7-7-/12-12-12-12----7--7s=5--5------|
|-7-9-9-/14-14-14-14-------9s=7--7--0---|
|---------------------------------------|
|---------------------------------------|


|-13-10----------10----10-------------------------------------------------||
|-------13-10-------13----13-10-------------------------------------------||
|-------------13----------------10h12p10--9-9--9-7-9--6-6--7-4--5p4s2--0--||
|-------------------------------------------------------------------------||
|-------------------------------------------------------------------------||
|-------------------------------------------------------------------------||
|
|-------------------------------------------------------------------------||
|--------------8-----8----10-------10----10---13-----13---13---12-----12\-||
|--5-----7-----7-----7----10-------10----10---12-----12---12---12-----12\-||
|--7-----9-----9-----9----10-------10----10---14-----14---14---12-----12\-||
|-------------------------------------------------------------------------||
|-------------------------------------------------------------------------||





Tablature Legend
----------------
 h   - hammer-on
 p   - pull-off
 b   - bend
 pb  - pre-bend
 r   - bend release (if no number after the r, then release immediately)
 /\  - slide into or out of (from/to "nowhere")
 s   - legato slide
 S   - shift slide
  - natural harmonic
[n]  - artificial harmonic
n(n) - tapped harmonic
 ~   - vibrato
 tr  - trill
 T   - tap
 TP  - trem. picking
 PM  - palm muting
\n/  - tremolo bar dip; n = amount to dip
 \n  - tremolo bar down
 n/  - tremolo bar up
/n\  - tremolo bar inverted dip
 =   - hold bend; also acts as connecting device for hammers/pulls
 <>  - volume swell (louder/softer)
 x   - on rhythm slash represents muted slash
 o   - on rhythm slash represents single note slash



***************************************************************************************
* Generated using Power Tab Editor by Brad Larsen - http://powertab.guitarnetwork.org *
***************************************************************************************

               *************************************************
               * And Re-edited for your convenience by SG-boy! *
               *************************************************



            
            
Suggest correction
Creating personal tab
Creating personal tab
You can edit any tab online and save it as your Personal.

You can edit, replace or remove any tab part or add personal notes – all changes will be seen only by you.

Personal tabs can be accessed anytime from any device, even offline.
Learn more »
Give kudos to tab author, rate the tab!
1 2 3 4 5
comments
print report bad tab
guest
You may want to rate the tab now too:
select rating
Wanna post a correction for this tab? Suggest correction