Oops, an error
Loading. Please wait.
We have an official Freewill tab made by UG professional guitarists. Check out the tab »
×
by Rush
46,481 views 72 this week
4 commentsread comments
1 2 3 4 5
x 15
add to favorites
×
Save as Personal and add changes to this tab that will be seen only by you. Learn more ›
×
You can save this tab as Personal to edit and correct it or add notes. All changes will be seen only by you. Learn more »
launch autoscroll
font size
0
reset
guitar tuner
backing track
0:00
0:00
edit
Autoscroll
slow
fast
+/-
esc
set tempo
stop
Author
Difficulty
Tabbers playing skills
beginner +
[Intro]
(0:00)
G|------------------------|
D|-3~----3----------------|
A|----------3---3---------|
E|-----------------1~~~~--|

(0:08)
G|-------------------------------0--|
D|-----------------------2-0--------|  X2
A|-----3--2-0--------3-3-----2h3----|
E|-1-1--------3--1-1----------------|

[Verse]
(0:18)
G|-----------------------------------|
D|------------------------2-0---0-2--|
A|-----3-3-2-0--------3-3-----3------|
E|-1-1---------3--1-1----------------|

G|-------------------------------0--|
D|-----------------------2-0--------|
A|-----3--2-0--------3-3-----2h3----|
E|-1-1--------3--1-1----------------|

G|-----------------------------------0--|
D|-------------------------2-0-00-------|
A|-----3-3-2-0---------3-3-------2h3----|
E|-1-1---------3--1-11------------------|

G|-----------------------------------|
D|------------------------2-0---0-2--|
A|-----3-3-2-0--------3-3-----3------|
E|-1-1---------3--1-1----------------|

[Pre-Chorus]
(0:39)
G|---------------------------------------|
D|------------------3-3-3----------------|
A|-2-2-2----1-1-1---------2-3-3-3-3-3----|
E|-------2--------3-------------------3--|

G|------------------------7~---------------|
D|------------------0--7~----7--7---7------|
A|-2-2-2---1-1-1------------------5---5-0--|
E|-------2--------3------------------------|

G|----------------------------------------------|
D|-----------------3--3-3--3-3------------------|
A|-2-2-2---1-1-1---------------2-3-3-3-3-3-3----|
E|-------2-------3---------------------------3--|

G|------------------------7-----7--------|
D|-----------------0-7~-----7-7---7-7----|
A|-2-2-2---1-1-1--------5-------------5--|
E|-------2-------3-----------------------|

[Chorus]
(1:04)
G|-7-6~---------------------------------|
D|------7--9~----------7-----------7-7--|
A|-------------7---9~-----0~~---0-------|
E|--------------------------------------|

G|-7-6~--------------------------------------|
D|------9-7--7---7---------7----7-7-7-----7--|
A|-------------7---10-10-9---0--------7-7----|
E|-------------------------------------------|

G|-7-6~---------------------------|
D|-------7--9~------7--------7-7--|
A|--------------7-9---0~~---------|
E|--------------------------------|

G|-7-6~--------------------------|
D|------9--7-7---7---------------|
A|-------------7---10-10-0----5--|
E|-------------------------------|

G|-------------------------------0--|
D|-----------------------2-0--------|
A|-----3--2-0--------3-3-----2h3----|
E|-1-1--------3--1-1----------------|

[Intro]
(1:32)
G|-------------------------------0--|
D|-----------------------2-0--------|  X2
A|-----3--2-0--------3-3-----2h3----|
E|-1-1--------3--1-1----------------|

[Verse]
(1:42)
G|-----------------------------------|
D|------------------------2-0---0-2--|
A|-----3-3-2-0--------3-3-----3------|
E|-1-1---------3--1-1----------------|

G|-------------------------------0--|
D|-----------------------2-0--------|
A|-----3--2-0--------3-3-----2h3----|
E|-1-1--------3--1-1----------------|

G|-----------------------------------0--|
D|-------------------------2-0-00-------|
A|-----3-3-2-0---------3-3-------2h3----|
E|-1-1---------3--1-11------------------|

G|-----------------------------------|
D|------------------------2-0---0-2--|
A|-----3-3-2-0--------3-3-----3------|
E|-1-1---------3--1-1----------------|

[Pre-Chorus]
(2:03)
G|---------------------------------------|
D|------------------3-3-3----------------|
A|-2-2-2----1-1-1---------2-3-3-3-3-3----|
E|-------2--------3-------------------3--|

G|------------------------7~---------------|
D|------------------0--7~----7--7---7------|
A|-2-2-2---1-1-1------------------5---5-0--|
E|-------2--------3------------------------|

G|----------------------------------------------|
D|-----------------3--3-3--3-3------------------|
A|-2-2-2---1-1-1---------------2-3-3-3-3-3-3----|
E|-------2-------3---------------------------3--|

G|----------------------------7-7~---------7--|
D|----------------------7---------------7-----|
A|-2-2-2---1-1-1----5-5---5-5------5--5---5---|
E|-------2-------3----------------------------|

[Chorus]
(2:28)
G|-7-6~---------------------------------|
D|------7--9~----------7-----------7-7--|
A|-------------7---9~-----0~~---0-------|
E|--------------------------------------|

G|-7-6~------------------------------------------|
D|------9-7--7---7-------------7----7-7-7-----7--|
A|-------------7---10-10---9~----0--------7-7----|
E|-----------------------------------------------|

G|-7-6~----------------------------------|
D|-------7----9~----------7---------7-7--|
A|----------------7---9~-----0~~---------|
E|---------------------------------------|

G|-7---6~---4------------------------|
D|-------------7~-5-4----------------|
A|--------------------7/-------------|
E|------------------------3-3-3-3-5--|

[Interlude]
(2:50)
G|------------------------------------------------------------3~--1--0--|
D|------7~--5--4/---------------------------3~--1--0----1--1------------|
A|-5--5-------------------3~--1--0----1--1------------------------------|
E|-----------------1---1------------------------------------------------|

G|---------------------------|
D|-3-2-0---------------------|
A|-------3-2-0---------------|
E|-------------3-2---3~~~~~--|

[Bass Solo]
(3:03)
G|----------------------------------------------------------------------------|
D|--------------------------3--------------2-2h3-2----------------------------|
A|-15---5--5--5---5------------5--5--5---5---------5-3----------------0-2-0---|
E|---0----------5---0-3-4-5------------5----------------1--1--1-0-1-3-------3-|

G|-----------------3-3-1-0------|
D|---------3---3-1---------3-1--|
A|-1-1-1-1---1------------------|
E|------------------------------|

[Guitar Solo]
(3:13)
G|--------------------------------------------------------------------------|
D|--------------3-3---3---------3-2-5-3-2-----------------------------------|
A|-5--5---3-4-5-----5-----3-4-5-----------5-3-2-------------------0--1-0----|
E|------5---------------5-----------------------3-2-1--1--1-0-1-3--------3--|

G|-----------------3-3---3----------------------------------------------------|
D|---------3---3-1-----1---1----------------3-3---5-5---6-6----5-5----3-------|
A|-1-1-1-1---1---------------3--5-5---3-4-5-----5-----5------5------5---5-4-3-|
E|----------------------------------5-----------------------------------------|

G|------------|
D|------------|
A|---3-4-5----|
E|-5-------3--|

G|--------------------------------------3-1-0---------------------------------|
D|------------------------------3---3-1-------3-1------------------3-3---3----|
A|---------------0-1-0----1-1-1---1----------------5---5----3--4-5-----5----3-|
E|-1--1--1-0-1-3-------3----------------------------------5----------------5--|

G|--------------------------------------------------------------|
D|----7-7------6-6-----5-5---3----------------------------------|
A|-5------5--------6-------5---5-3---------------------0-1-0----|
E|---------------------------------5-3--1--1--1-0--1-3-------3--|

G|-----------------3---3--------------------------------------|
D|--------3---3--1---1---1------------------3-3----5-5---6-6--|
A|-1--1-1---1--------------3---5--5---3-4-5-----5------5------|
E|----------------------------------5-------------------------|

G|-----5------------------------------------------------|
D|---7---7--6-5---3-------------------------------------|
A|-5-----------------5-4-3---------------------0-1-0----|
E|-------------------------5-3--1--1-0-1-0-1-3-------3--|

G|-----------------3-----5-----7-----------------------------|
D|---------3---3-1---13---57-----------------3---3-----------|
A|-1-1-1-1---1--------------------5--5---3-4-5---5-----3-3---|
E|-------------------------------------5-------------5-------|

G|-----7-----6-----5---4---3-------|
D|---------------------------------|
A|-35---4-4---3-3---2---1----------|
E|---------------------------3-2---|

G|-----------------------------------------------3-3--3--3-2-0----------|
D|----------------------------------3-3-3-1-1--1---------------3-2-0----|
A|-----------------0-1-0-----1-1-1-----------------------------------3--|
E|-1--1--0-1-0-1-3-------3----------------------------------------------|

G|-------------------------------------------------|
D|--------------------------3-3--3-----------------|
A|-2--2---2----1--1---1------------2-3--3-3--3-----|
E|-----------2-----------3----------------------3--|

G|-------------------------7-7----------------14----------|
D|-----------------------------7--------------------------|
A|-2--2---2----1--1----1----------5----5-512-----12-12----|
E|-----------2--------------------------------------------|

G|-------------------------------|
D|-12------------------------12--|
A|----12-------------------------|
E|-------10---10-10-10-10-10-----|

[Pre-Chorus]
(4:01)
G|---------------------------------------|
D|------------------3-3-3----------------|
A|-2-2-2----1-1-1---------2-3-3-3-3-3----|
E|-------2--------3-------------------3--|

G|------------------------7~---------------|
D|------------------0--7~----7--7---7------|
A|-2-2-2---1-1-1------------------5---5-0--|
E|-------2--------3------------------------|

G|----------------------------------------------|
D|-----------------3--3-3--3-3------------------|
A|-2-2-2---1-1-1---------------2-3-3-3-3-3-3----|
E|-------2-------3---------------------------3--|

G|-----------------------------7-----7---------7----|
D|-----------------------7-------7-7---7-7----------|
A|-2-2-2---1-1-1---5-5-5---5-5-------------5-5---5--|
E|-------2-------3----------------------------------|

G|---------------------------------------|
D|------------------3-3-3----------------|
A|-2-2-2----1-1-1---------2-3-3-3-3-3----|
E|-------2--------3-------------------3--|

G|--------------------------7-----7-----7------|
D|----------------------7----------------------|
A|-2-2-2---1-1-1----5-5---5---5-5---5-5---5-5--|
E|-------2--------3----------------------------|

[Chorus]
(4:38)
G|-7-6~---------------------------------|
D|------7--9~----------7-----------7-7--|
A|-------------7---9~-----0~~---0-------|
E|--------------------------------------|

G|-7-6~--------------------------------------|
D|------9-7--7---7---------7----7-7-7-----7--|
A|-------------7---10-10-9---0--------7-7----|
E|-------------------------------------------|

G|-7-6~---------------------------|
D|-------7--9~------7--------7-7--|
A|--------------7-9---0~~---------|
E|--------------------------------|

G|-7-6--4--------------------|
D|--------7-5-4--------------|
A|--------------7/-----------|
E|-----------------333333-5--|

[Interlude]
(5:00)
G|-----------------------------------------3--1-0--|
D|-----7--5-4------------------3--1-0--1-1---------|
A|-5-5-------------3--1-0--1-1---------------------|
E|-------------1-1---------------------------------|

[Outro]
(5:10)
G|-3-3-3---------------------------|
D|--------3-3-3--------------------|
A|---------------1-1-1-------------|
E|----------------------1-1-1--3~--|

************************************

| ~  Vibrato
| h  Hammer-on
| /  Slide up

************************************

            
            
Suggest correction
Creating personal tab
Creating personal tab
You can edit any tab online and save it as your Personal.

You can edit, replace or remove any tab part or add personal notes – all changes will be seen only by you.

Personal tabs can be accessed anytime from any device, even offline.
Learn more »
comments
print report bad tab
4 comments total. Showing first comments.
+1 reply
R8:31b 1,731 Jul 18, 2008 11:31 AM

good tab, hard to follow tho, but thats just cuz the song in a high tempo, 5 stars.

0 reply
rlykng08 51 Jul 19, 2008 09:04 AM

Thanks much man

0 reply
derekwalden_-33 194 Sep 29, 2008 03:52 AM

Sounds great man. 5*

guest
You may want to rate the tab now too:
select rating
Wanna post a correction for this tab? Suggest correction