Oops, an error
Loading. Please wait.
We have an official Freewill tab made by UG professional guitarists. Check out the tab »
×
by Rush
3,999 views 9 this week
no commentswrite comment
1 2 3 4 5
x 8
add to favorites
×
Save as Personal and add changes to this tab that will be seen only by you. Learn more ›
×
You can save this tab as Personal to edit and correct it or add notes. All changes will be seen only by you. Learn more »
launch autoscroll
font size
0
reset
guitar tuner
backing track
0:00
0:00
edit
Autoscroll
slow
fast
+/-
esc
set tempo
stop
Author
Difficulty
Intro
G|-------------------------------------------------------------------------------------|
D|-3---------3-------------------------------------------------------------------------|
A|-----------------3---------3---------------------------------------------------------|
E|---------------------------------1---------------------------------------------------|
   1 + 2 + 3 + 4 + 1 + 2 + 3 + 4 + 1 + 2 + 3 + 4 + 5 + 6 + 1 + 2 + 3 + 4 + 5 + 6 + 7 +

G|-------------------------------------------------------|
D|o-------------------------------------2-----------5---o|
A|o-------3---3-2-----------------3---3-----5---2-3-----o|
E|--1---1-----------5---3---1---1------------------------|
    1 + 2 + 3 + 4 + 5 + 6 + 1 + 2 + 3 + 4 + 5 + 6 + 7 +

Verse
G|---------------------------------------------------------|
D|-------------------------------------2---------------2---|
A|-------3---3-2-----------------3---3-----5---3---5-------|
E|-1---1-----------5---3---1---1---------------------------|
   1 + 2 + 3 + 4 + 5 + 6 + 1 + 2 + 3 + 4 + 5 + 6 + 7 + 8 +

G|-----------------------------------------------------|
D|-------------------------------------2-----------5---|
A|-------3-----2-----------------3---3-----5---2-3-----|
E|-1---1-----------5---3---1---1-----------------------|
   1 + 2 + 3 + 4 + 5 + 6 + 1 + 2 + 3 + 4 + 5 + 6 + 7 +

G|-----------------------------------------------------|
D|-------------------------------------2-----------5---|
A|-------3---3-2-----------------3---3-----5-5-2-3-----|
E|-1---1-----------5---3---1---1-----------------------|
   1 + 2 + 3 + 4 + 5 + 6 + 1 + 2 + 3 + 4 + 5 + 6 + 7 +

G|---------------------------------------------------------|
D|-------------------------------------2---------------2---|
A|-------3---3-2-----------------3---3-----5---3---5-------|
E|-1---1-----------5---3---1---1---------------------------|
   1 + 2 + 3 + 4 + 5 + 6 + 1 + 2 + 3 + 4 + 5 + 6 + 7 + 8 +

Pre Chorus
G|-----------------------------------------------------------------|
D|---------------------------------3---3-----3---------------------|
A|-2---2-----2-----1---1-----1-------------------2-3---3-----3-----|
E|---------------2---------------3-------------------------------3-|
   1 + 2 + 3 + 4 + 1 + 2 + 3 + 4 + 1 + 2 + 3 + 4 + 1 + 2 + 3 + 4 +

G|---------------------------------------------7-------------------|
D|---------------------------------------7-----------7---7---7-----|
A|-2---2-----2-----1---1-----1-----5-----------------------5---5---|
E|---------------2---------------3-------------------------------5-|
   1 + 2 + 3 + 4 + 1 + 2 + 3 + 4 + 1 + 2 + 3 + 4 + 1 + 2 + 3 + 4 +

G|-----------------------------------------------------------------|
D|---------------------------------3---3-----3---------------------|
A|-2---2-----2-----1---1-----1-------------------2-3---3-----3-----|
E|---------------2---------------3-------------------------------3-|
   1 + 2 + 3 + 4 + 1 + 2 + 3 + 4 + 1 + 2 + 3 + 4 + 1 + 2 + 3 + 4 +

G|---------------------------------------------7-------7-----------|
D|---------------------------------------7---------7-7-----7-7-----|
A|-2-2-2-----2-----1---1-----1-----5---------5-----------------5---|
E|---------------2---------------3---------------------------------|
   1 + 2 + 3 + 4 + 1 + 2 + 3 + 4 + 1 + 2 + 3 + 4 + 1 + 2 + 3 + 4 +

Chorus
G|-7-----6-----------------------------------------------------|
D|-----------------7-----9-----------------------------7---7---|
A|---------------------------------7-----9-9-7-----------------|
E|---------------------------------------------5---------------|
   1 + 2 + 3 + 4 + 1 + 2 + 3 + 4 + 1 + 2 + 3 + 4 + 1 + 2 + 3 + 

G|-7-----6-----------------------------------------------------|
D|-----------------9-----7---7---7-5-----4---7-------7-77--7---|
A|-----------------------------7-------------------------77----|
E|---------------------------------------------5---------------|
   1 + 2 + 3 + 4 + 1 + 2 + 3 + 4 + 1 + 2 + 3 + 4 + 1 + 2 + 3 + 

G|-7-----6-----------------------------------------------------|
D|-----------------7-----9-----------------------------7---7---|
A|---------------------------------7-----9-9-7-----------------|
E|---------------------------------------------5---------------|
   1 + 2 + 3 + 4 + 1 + 2 + 3 + 4 + 1 + 2 + 3 + 4 + 1 + 2 + 3 + 

G|-7-----6--------------------------------------------------------|
D|-----------------9-----7---7---7-5------------------------------|
A|-----------------------------7-------------------5--------------|
E|---------------------------------------5------------------------|
   1 + 2 + 3 + 4 + 1 + 2 + 3 + 4 + 1 + 2 + 3 + 4 + 1 + 2 + 3 + 4 +

Interlude
G|-----------------------------------------------------|
D|-------------------------------------2-----------5---|
A|-------3-----2-----------------3---3-----5---2-3-----|
E|-1---1-----------5---3---1---1-----------------------|
   1 + 2 + 3 + 4 + 5 + 6 + 1 + 2 + 3 + 4 + 5 + 6 + 7 +

G|-----------------------------------------------------|
D|-------------------------------------2-----------5---|
A|-------3---3-2-----------------3---3-----5-5-2-3-----|
E|-1---1-----------5---3---1---1-----------------------|
   1 + 2 + 3 + 4 + 5 + 6 + 1 + 2 + 3 + 4 + 5 + 6 + 7 +

G|-------------------------------------------------------|
D|-------------------------------------2-------------5---|
A|-------3-----2-----------------3---3-----5---2-3-5-----|
E|-1---1-----------5---3---1---1-------------------------|
   1 + 2 + 3 + 4 + 5 + 6 + 1 + 2 + 3 + 4 + 5 + Tripl 7 +

Verse
G|---------------------------------------------------------|
D|-------------------------------------2---------------2---|
A|-------3-----2-----------------3---3-----5---3---5-------|
E|-1---1-----------5---3---1---1---------------------------|
   1 + 2 + 3 + 4 + 5 + 6 + 1 + 2 + 3 + 4 + 5 + 6 + 7 + 8 +

G|-----------------------------------------------------|
D|-------------------------------------2-----------5---|
A|-------3-----2-----------------3---------5---2-3-----|
E|-1---1-----------5---3---1---1-----------------------|
   1 + 2 + 3 + 4 + 5 + 6 + 1 + 2 + 3 + 4 + 5 + 6 + 7 +

G|-----------------------------------------------------|
D|-------------------------------------2-----------5-5-|
A|-------3---3-2-----------------3---3-----5---2-3-----|
E|-1---1-----------5---3---1-1-1-----------------------|
   1 + 2 + 3 + 4 + 5 + 6 + 1 + 2 + 3 + 4 + 5 + 6 + 7 +

G|---------------------------------------------------------|
D|-------------------------------------2---------------2---|
A|-------3---3-2-----------------3---3-----5---3---5-------|
E|-1---1-----------5---3---1---1---------------------------|
   1 + 2 + 3 + 4 + 5 + 6 + 1 + 2 + 3 + 4 + 5 + 6 + 7 + 8 +

Pre Chorus
G|-----------------------------------------------------------------|
D|---------------------------------3---3-3---3---------------------|
A|-2---2-----2-----1---1-----1-------------------2-3---3-----3-----|
E|---------------2---------------3-------------------------------3-|
   1 + 2 + 3 + 4 + 1 + 2 + 3 + 4 + 1 + 2 + 3 + 4 + 1 + 2 + 3 + 4 +

G|---------------------------------------------7-------7-----------|
D|---------------------------------------7-------7---7---7---7-----|
A|-2---2-----2-----1---1-----1-----5---------5-----------------5-7-|
E|---------------2---------------3---------------------------------|
   1 + 2 + 3 + 4 + 1 + 2 + 3 + 4 + 1 + 2 + 3 + 4 + 1 + 2 + 3 + 4 +

G|-----------------------------------------------------------------|
D|---------------------------------3---3-----3---------------------|
A|-2---2-----2-----1---1-----1-------------------2-3-3-3---3-3-----|
E|---------------2---------------3-------------------------------3-|
   1 + 2 + 3 + 4 + 1 + 2 + 3 + 4 + 1 + 2 + 3 + 4 + 1 + 2 + 3 + 4 +

G|---------------------------------------------7-7-------------7---|
D|---------------------------------------7----------------7--------|
A|-2---2-----2-----1---1-----1-----5---5---5-5-------5---5-5-------|
E|---------------2---------------3---------------------------------|
   1 + 2 + 3 + 4 + 1 + 2 + 3 + 4 + 1 + 2 + 3 + 4 + 1 + 2 + 3 + 4 +

Chorus
G|-7-----6-----------------------------------------------------|
D|-----------------7-----9-----------------------------7---7---|
A|---------------------------------7-----9---7-----------------|
E|---------------------------------------------5-----5---------|
   1 + 2 + 3 + 4 + 1 + 2 + 3 + 4 + 1 + 2 + 3 + 4 + 1 + 2 + 3 + 

G|-7-----6-------------------------------------------------------|
D|-----------------9-----7---7---7-5-----4---7-----77557755------|
A|-----------------------------7---------------------------5-4---|
E|---------------------------------------------5---------------5-|
   1 + 2 + 3 + 4 + 1 + 2 + 3 + 4 + 1 + 2 + 3 + 4 + 1 + 2 + Tripl

G|-7-----6-----------------------------------------------------|
D|-----------------7-----9---9---9-----------7---------7---7---|
A|---------------------------------7-----9---------------------|
E|---------------------------------------------5-----5---------|
   1 + 2 + 3 + 4 + 1 + 2 + 3 + 4 + 1 + 2 + 3 + 4 + 1 + 2 + 3 + 

G|-7-----6-------------------------------------------------------------|
D|-----------------9-----7---5-4-------------------------7-----5---4---|
A|-------------------------------7-----------------5---5---------------|
E|---------------------------------3-3-3-5-----------------------------|
   1 + 2 + 3 + 4 + 1 + 2 + 3 + 4 + 1 + 2 + 3 + 4 + 1 + 2 + 3 + 4 + 5 +

Interlude
G|-----------------------------------------------3-----1---0-------------------|
D|---------------------------3-----1---0---1---1---------------3-2-0-----------|
A|-------3-----1---0---1---1-----------------------------------------3-2-0-----|
E|-1---1-------------------------------------------------------------------3-1-|
   1 + 2 + 3 + 4 + 5 + 1 + 2 + 3 + 4 + 5 + 1 + 2 + 3 + 4 + 5 + 1 + 2 + 3 + 4 +

Solo
G|-------------------------------------------------------------------------|
D|---------------------------------------------9---0---0---0---0---------3-|
A|-----------------------------------------------------------0-------------|
E|-3-------------------------------------------------------------0-3-4-5---|
   1 + 2 + 3 + 4 + 5 + 6 + 1 + 2 + 3 + 4 + 5 + 6 + 1 + 2 + 3 + 4 + 5 + 6 +

G|---------------------------------------------------------------331-0-----|
D|-0---0---0---0-2-3-2-0---------------------------------3---3-1-------3-1-|
A|-----------0-----------3-----------------0-1-0---1-1-1---1---------------|
E|-------------------------1---1---1-0-1-3-------3-------------------------|
   1 + 2 + 3 + 4 + 5 + 6 + 1 + 2 + 3 + 4 + 5 + 6 + 1 + 2 + 3 + 4 + 5 + 6 +

G|-------------------------------------------------------------------------|
D|-0---0-------0-330-3---------3-2-5-3-2-0---------------------------------|
A|-------0-3-4---------0-3-4-5-------------3-2---------------------0-1-0---|
E|---------------------------------------------3-2-1---1---1-0-1-3-------3-|
   1 + 2 + 3 + 4 + 5 + 6 + 1 + 2 + 3 + 4 + 5 + 6 + 1 + 2 + 3 + 4 + 5 + 6 +

G|---------------33--3-----------------------------------------------------|
D|-------3---3-1---1---1---0---0-------0-330-550-660-550-3-0-----------0---|
A|-1-1-1---1-------------3-------0-3-4-----------------------4-3-0-3-4-----|
E|-----------------------------------------------------------------------3-|
   1 + 2 + 3 + 4 + 5 + 6 + 1 + 2 + 3 + 4 + 5 + 6 + 1 + 2 + 3 + 4 + 5 + 6 +

G|---------------------------------------3-1-0-----------------------------|
D|-------------------------------3---3-1-------3-1-0---0-------0-3-0-3-----|
A|-----------------0-1-0---1-1-1---1---------------------0-3-4---------0-3-|
E|-1---1---1-0-1-3-------3-------------------------------------------------|
   1 + 2 + 3 + 4 + 5 + 6 + 1 + 2 + 3 + 4 + 5 + 6 + 1 + 2 + 3 + 4 + 5 + 6 +

G|---------------------------------------------------------------3---3-----|
D|-0-770-666-770-7-0-------------------------------------3---3-1---1---1---|
A|-------------------3-0-------------------0-1-0---1-1-1---1-------------3-|
E|-----------------------3-1---1---1-0-1-3-------3-------------------------|
   1 + 2 + 3 + 4 + 5 + 6 + 1 + 2 + 3 + 4 + 5 + 6 + 1 + 2 + 3 + 4 + 5 + 6 +

G|-----------------------------5-------------------------------------------|
D|-0---0-------0-33005500667-7---7-6-5-3-0---------------------------------|
A|-------0-3-4-----------------------------4-3-0-------------------0-1-0---|
E|-----------------------------------------------3-1---1-0-1-0-1-3-------3-|
   1 + 2 + 3 + 4 + 5 + 6 + 1 + 2 + 3 + 4 + 5 + 6 + 1 + 2 + 3 + 4 + 5 + 6 +

G|---------------3---5---7---------------------------7---6---5---4---3-----|
D|-------3---3-1---3---5---0---0-------0-3-0-3-----------------------------|
A|-011-1---1---------------------0-3-4---------0-3-5---4---3---2---1-------|
E|---------------------------------------------------------------------3-2-|
   1 + 2 + 3 + 4 + 5 + 6 + 1 + 2 + 3 + 4 + 5 + 6 + 1 + 2 + 3 + 4 + 5 + 6 +

G|-------------------------------------------3-3-3-3-2-0---------|
D|-------------------------------3-3-3-1-1-1-------------3-2-0---|
A|-----------------0-1-0---1-111-------------------------------3-|
E|-1---1-0-1-0-1-3-------3---------------------------------------|
   1 + 2 + 3 + 4 + 5 + 6 + 1 + 2 + 3 + 4 + 5 + 6 + 1 2 3 4 5 6 7

G|-----------------------------------------------------------------|
D|---------------------------------3---3-----3---------------------|
A|-2---2-----2-----1---1-----1-------------------2-3---3-3-3-3-----|
E|---------------2---------------3-------------------------------3-|
   1 + 2 + 3 + 4 + 1 + 2 + 3 + 4 + 1 + 2 + 3 + 4 + 1 + 2 + 3 + 4 +

G|-----------------------------------------------------------------|
D|-------------------------------------------777-----77------------|
A|-2---2-----2-----1---1-----1---555---5-5555----------555555--5---|
E|---------------2-------------------------------------------------|
   1 + 2 + 3 + 4 + 1 + 2 + 3 + 4 + 1 + 2 + 3 + 4 + 1 + 2 + 3 + 4 +

Pre Chorus
G|-----------------------------------------------------------------|
D|---------------------------------3---3-----3---------------------|
A|-2---2-----2-----1---1-----1-------------------2-3---3-----3-----|
E|---------------2---------------3-------------------------------3-|
   1 + 2 + 3 + 4 + 1 + 2 + 3 + 4 + 1 + 2 + 3 + 4 + 1 + 2 + 3 + 4 +

G|---------------------------------------------7-----7-------------|
D|---------------------------------------7-------7-7---7-7---------|
A|-2---2-2---2-----1---1-----1-----5-5-5---5-5-------------55--5-5-|
E|---------------2---------------3---------------------------------|
   1 + 2 + 3 + 4 + 1 + 2 + 3 + 4 + 1 + 2 + 3 + 4 + 1 + 2 + 3 + 4 +

G|-----------------------------------------------------------------|
D|---------------------------------3---3-----3---------------------|
A|-2---2-----2-----1---1-----1-------------------2-3---3-----3-----|
E|---------------2---------------3-------------------------------3-|
   1 + 2 + 3 + 4 + 1 + 2 + 3 + 4 + 1 + 2 + 3 + 4 + 1 + 2 + 3 + 4 +

G|-----------------------------------------7-----------------------|
D|---------------------------------------7-------------------------|
A|-2---2-----2-----1---1-----1---1-5---5--5----5---55--5---55--5---|
E|---------------2-------------------------------------------------|
   1 + 2 + 3 + 4 + 1 + 2 + 3 + 4 + 1 + 2 + 3 + 4 + 1 + 2 + 3 + 4 +

Chorus
G|-7-----6-----------------------------------------------------|
D|-----------------7-----9---9---9---------------------7---7---|
A|---------------------------------7---7-9---7-----------------|
E|---------------------------------------------5---------------|
   1 + 2 + 3 + 4 + 1 + 2 + 3 + 4 + 1 + 2 + 3 + 4 + 1 + 2 + 3 + 

G|-7-----6-----------------------------------------------------|
D|-----------------9-----7-------7-5-----4---7-------7-77--7---|
A|-----------------------------7-------------------------77----|
E|---------------------------------------------5---------------|
   1 + 2 + 3 + 4 + 1 + 2 + 3 + 4 + 1 + 2 + 3 + 4 + 1 + 2 + 3 + 

G|-7-----6-----------------------------------------------------|
D|-----------------7-----9---9-------------------------7---7---|
A|-------------------------------7-7---7-9---7-----------------|
E|---------------------------------------------5-----5---------|
   1 + 2 + 3 + 4 + 1 + 2 + 3 + 4 + 1 + 2 + 3 + 4 + 1 + 2 + 3 + 

G|-7-----6-------------------------------------------------------------|
D|-----------------9-----7---5-4-------------------------7-----5---4---|
A|-------------------------------7-----------------5---5---------------|
E|---------------------------------3-3-3-5-----------------------------|
   1 + 2 + 3 + 4 + 1 + 2 + 3 + 4 + 1 + 2 + 3 + 4 + 1 + 2 + 3 + 4 + 5 +

Outro
G|-----------------------------------------------3-----1---0---333-------------|
D|---------------------------3-----1---0---1---1-------------------------------|
A|-------3-----1---0---1---1---------------------------------------------111---|
E|-1---1-----------------------------------------------------------------------|
   1 + 2 + 3 + 4 + 5 + 1 + 2 + 3 + 4 + 5 + 1 + 2 + 3 + 4 + 5 + 1 + 2 + 3 + 4 +

G|-----------------------------------------------------------------|
D|-333-------------------------------------------------------------|
A|-----------------------------------------------------------------|
E|-----------111---3-----------------------------------------------|
   1 + 2 + 3 + 4 + 1 + 2 + 3 + 4 + 1 + 2 + 3 + 4 + 1 + 2 + 3 + 4 +

Tabbed by Dave Vucko

            
            
Suggest correction
Creating personal tab
Creating personal tab
You can edit any tab online and save it as your Personal.

You can edit, replace or remove any tab part or add personal notes – all changes will be seen only by you.

Personal tabs can be accessed anytime from any device, even offline.
Learn more »
comments
print report bad tab
guest
You may want to rate the tab now too:
select rating
Wanna post a correction for this tab? Suggest correction