Oops, an error
Loading. Please wait.

Freeze Bass Tab

by Rush
34 views 3 this week
no commentswrite comment
1 2 3 4 5
2 more votes to show rating
add to favorites
launch autoscroll
font size
0
reset
guitar tuner
Autoscroll
slow
fast
+/-
esc
set tempo
stop
Help us to improve Ultimate-Guitar.com Take our survey!
×
Author
Difficulty
advanced
About this tab version
Found this on a Rush fan website, thought it would be useful to post here. Was this info helpful? Yes No
Title: The Freeze
Artist: Rush
Album: Vapor Trails
Tempo = 140

Transcribed by Jon Ferguson
Last updated 5/29/16

This tab was a mammoth undertaking. Certain sections, especially during the interlude,
are lacking some clarity. But then again, so is the album. Needless to say, this tab will
get you through the song.

The majority of this song is done with the flamenco “flapping” technique. When you
see an “x” in the tab, it’s a dead-note. You mute the string with your left hand
but continue playing the dead-notes with your right hand.

     e     s  s  e     s  s  e     s  s  s  s  e     s  s  e     s  s  s  s

G |-----------------------------------------------------------------------------|
D |6----------------------------------------------------------------------------|
A |4--7-----x--x--7-----x--x--7-----x--x--x--x--7-----x--x--7-----x--x--7--7----|
E |-----------------------------------------------------------------------------|


  s  s  s  s  e     s  s  e     s  s  e     s  s  s  s  e     s  s  s  s

----------------------------------------------------------------------------|
----------------------------------------------------------------------------|
--7--7--7--7--7-----x--x--7-----x--x--7-----x--x--x--x--7-----x--7--7--7----|
----------------------------------------------------------------------------|

  e     s  s  e     s  s  e     s  s  s  s  e     s  s  e     s  s  s  s

----------------------------------------------------------------------------|
----------------------------------------------------------------------------|
--7-----x--x--7-----x--x--7-----x--x--x--x--7-----x--x--7-----x--x--7--7----|
----------------------------------------------------------------------------|

  s  s  s  s  e     s  s  e     s  s  e     s  s  s  s  e     s  s  s  s

----------------------------------------------------------------------------|
----------------------------------------------------------------------------|
--7--7--7--7--7-----x--x--7-----x--x--7-----x--x--x--x--7-----x--7--7--7----|
----------------------------------------------------------------------------|

   e     s  s  e     s  s  e     s  s  s  s  e     s  s  s  s

-----------------------------------------------------------------|
5----------------------------------------------------------------|
4--7-----x--x--7-----x--x--7-----x--x--x--x--7-----x--x--7--7----|
-----------------------------------------------------------------|

   e     s  s  e     s  s  s  s  e     s  s  e     s  s  e     E        s

-------------------------------------------------------------------------------|
6--9-----------9-----------------9-----------9-----------9-----9---------------|
4--7-----x--x--7-----x--x--x--x--7-----x--x--7-----x--x--7-----7--------x------|
-------------------------------------------------------------------------------|


  e     s  s  e     s  s  s  s  e     s  s  e     s  s  s  s  q

--11----------11----------------11----------11----11-11-11-11-11------------|
--12----------12----------------12----------12----12-12-12-12-12------------|
--12----x--x--12----x--x--x--x--12----x--x--12----12-12-12-12-12------------|
----------------------------------------------------------------------------|

  e     s  s  e     s  s  s  s  e     s  s  e     s  s  e     q


----------------------------------------------------------------------------|
--6-----------6-----------------6-----------6-----7--7--7-----7-------------|
--7-----x--x--7-----x--x--x--x--7-----x--x--7-----7--7--7-----7-------------|
----------------------------------------------------------------------------|

  e     s  s  e     s  s  s  s  e     s  s  e     s  s  e     q

----------------------------------------------------------------------------|
--6-----------6-----------------6-----------6-----------6-----7-------------|
--7-----x--x--7-----x--x--x--x--7-----x--x--7-----x--x--7-----7-------------|
----------------------------------------------------------------------------|

  e     s  s  e     s  s  s  s  e     s  s  e     s  s  e     E        s

----------------------------------------------------------------------------|
--9-----------9-----------------9-----------9-----------9-----9-------------|
--7-----x--x--7-----x--x--x--x--7-----x--x--7-----x--x--7-----7--------x----|
----------------------------------------------------------------------------|

  e     s  s  e     s  s  s  s  e     s  s  e     s  s  s  s  q

--11----------11----------------11----------11----11-11-11-11-11------------|
--12----------12----------------12----------12----12-12-12-12-12------------|
--12----x--x--12----x--x--x--x--12----x--x--12----12-12-12-12-12------------|
----------------------------------------------------------------------------|


  e     s  s  e     s  s  s  s  e     s  s  e     s  s  e     q

----------------------------------------------------------------------------|
--6-----------6-----------------6-----------6-----7--7--7-----7-------------|
--7-----x--x--7-----x--x--x--x--7-----x--x--7-----7--7--7-----7-------------|
----------------------------------------------------------------------------|

  e     s  s  e     s  s  s  s  e     s  s  e     s  s  e     q

----------------------------------------------------------------------------|
--6-----------6-----------------6-----------6-----------6-----7-------------|
--7-----x--x--7-----x--x--x--x--7-----x--x--7-----x--x--7-----7-------------|
----------------------------------------------------------------------------|

     W      q             W       q
--------------------|-------------------|
5-------------------|-------------------|
4-------------------|-------------------|
--------------------|-------------------|


  e     e     e     s  s  e     e     e     e     e     e

----------------------------------------------------------------|
----------------------------------------------------------------|
----------------------------------------------------------------|
--2-----0-----2-----0--0--0-----2-----0-----2-----0-----0-------|


  e     e     e     e     e     e     e     e     s  s  e

----------------------------------------------------------------|
----------------------------------------------------------------|
----------------------------------------------------------------|
--2-----0-----2-----0-----0-----2-----0-----2-----0--0--0-------|


  e     e     e     s  s  e     e     e     e     e     e

----------------------------------------------------------------|
----------------------------------------------------------------|
----------------------------------------------------------------|
--2-----0-----2-----0--0--0-----2-----0-----2-----0-----0-------|


 e     e     e     e     e     e     e     e     s  s  e

----------------------------------------------------------------|
----------------------------------------------------------------|
----------------------------------------------------------------|
--2-----0-----2-----0-----0-----2-----0-----2-----0--0--0-------|


  e     e     e     s  s  e     e     e     e     e     e

----------------------------------------------------------------|
----------------------------------------------------------------|
----------------------------------------------------------------|
--2-----0-----2-----0--0--0-----2-----0-----2-----0-----0-------|


  e     e     e     e    e      e     e     e     s  s  e

----------------------------------------------------------------|
----------------------------------------------------------------|
----------------------------------------------------------------|
--2-----0-----2-----0-----0-----2-----0-----2-----0--0--0-------|


  e     e     e     s  s  e     e     e     e     e     e

----------------------------------------------------------------|
----------------------------------------------------------------|
----------------------------------------------------------------|
--2-----0-----2-----0--0--0-----2-----0-----2-----0-----0-------|


  e     e     e     e     e     e     e     e     s  s  e

----------------------------------------------------------------|
----------------------------------------------------------------|
----------------------------------------------------------------|
--2-----0-----2-----0-----0-----2-----0-----2-----0--0--0-------|


   W                       e

--------------------------------|
9-------------------------------|
8-------------------------------|
---7----------------------(7)---|


   e     s  s  e     s  s  s  s  e     s  s  e     s  s  s  s

-----------------------------------------------------------------|
5--6-----------6-----------------6-----------6-------------------|
4--7-----x--x--7-----x--x--x--x--7-----x--x--7-----x--x--x--x----|
-----------------------------------------------------------------|

  e     s  s  e     s  s  s  s  e     s  s  e     s  s  s  s

----------------------------------------------------------------|
--7-----------7-----------------7-----------7-------------------|
--7-----x--x--7-----x--x--x--x--7-----x--x--7-----x--x--x--x----|
----------------------------------------------------------------|

  e     s  s  e     s  s  s  s  e     s  s  e     s  s  s  s

----------------------------------------------------------------|
--4-----------4-----------------4-----------4-------------------|
--5-----x--x--5-----x--x--x--x--5-----x--x--5-----x--x--x--x----|
----------------------------------------------------------------|

  e     s  s  e     s  s  s  s  e     s  s  e     s  s  s  s

----------------------------------------------------------------|
--9-----------9-----------------9-----------9-------------------|
--7-----x--x--7-----x--x--x--x--7-----x--x--7-----x--x--x--x----|
----------------------------------------------------------------|

  e     s  s  e     s  s  s  s  e     s  s  e     s  s  s  s

----------------------------------------------------------------|
--6-----------6-----------------6-----------6-------------------|
--7-----x--x--7-----x--x--x--x--7-----x--x--7-----x--x--x--x----|
----------------------------------------------------------------|

  e     s  s  e     s  s  s  s  e     s  s  e     s  s  s  s

----------------------------------------------------------------|
--7-----------7-----------------7-----------7-------------------|
--7-----x--x--7-----x--x--x--x--7-----x--x--7-----x--x--x--x----|
----------------------------------------------------------------|

  e     s  s  e     s  s  s  s  e     s  s  e     s  s  s  s

----------------------------------------------------------------|
--4-----------4-----------------4-----------4-------------------|
--5-----x--x--5-----x--x--x--x--5-----x--x--5-----x--x--x--x----|
----------------------------------------------------------------|

  e     s  s  e     s  s  s  s  e     s  s  e     s  s  s  s

----------------------------------------------------------------|
--9-----------9-----------------9-----------9-------------------|
--7-----x--x--7-----x--x--x--x--7-----x--x--7-----x--x--x--x----|
----------------------------------------------------------------|

  e     s  s  e     s  s  s  s  e     s  s  e     s  s  s  s

----------------------------------------------------------------|
--6-----------6-----------------6-----------6-------------------|
--7-----x--x--7-----x--x--x--x--7-----x--x--7-----x--x--x--x----|
----------------------------------------------------------------|

  e     s  s  e     s  s  s  s  e     s  s  e     s  s  s  s

----------------------------------------------------------------|
--7-----------7-----------------7-----------7-------------------|
--7-----x--x--7-----x--x--x--x--7-----x--x--7-----x--x--x--x----|
----------------------------------------------------------------|

  e     s  s  e     s  s  s  s  e     s  s  e     s  s  s  s

----------------------------------------------------------------|
--4-----------4-----------------4-----------4-------------------|
--5-----x--x--5-----x--x--x--x--5-----x--x--5-----x--x--x--x----|
----------------------------------------------------------------|

  e     s  s  e     s  s  s  s  e     s  s  e     s  s  s  s

----------------------------------------------------------------|
--9-----------9-----------------9-----------9-------------------|
--7-----x--x--7-----x--x--x--x--7-----x--x--7-----x--x--x--x----|
----------------------------------------------------------------|

  e     s  s  e     s  s  s  s  e     s  s  e     s  s  s  s

----------------------------------------------------------------|
--6-----------6-----------------6-----------6-------------------|
--7-----x--x--7-----x--x--x--x--7-----x--x--7-----x--x--x--x----|
----------------------------------------------------------------|

  e     s  s  e     s  s  s  s  e     s  s  e     s  s  s  s

----------------------------------------------------------------|
--7-----------7-----------------7-----------7-------------------|
--7-----x--x--7-----x--x--x--x--7-----x--x--7-----x--x--x--x----|
----------------------------------------------------------------|

  e     s  s  e     s  s  s  s  e     s  s  e     s  s  s  s

----------------------------------------------------------------|
--4-----------4-----------------4-----------4-------------------|
--5-----x--x--5-----x--x--x--x--5-----x--x--5-----x--x--x--x----|
----------------------------------------------------------------|

  e     s  s  e     s  s  s  s  e     s  s  e     s  s  s  s

----------------------------------------------------------------|
--9-----------9-----------------9-----------9-------------------|
--7-----x--x--7-----x--x--x--x--7-----x--x--7-----x--x--x--x----|
----------------------------------------------------------------|

  e     s  s  e     s  s  s  s  e     s  s  e     s  s  s  s

----------------------------------------------------------------|
--6-----------6-----------------6-----------6-------------------|
--7-----x--x--7-----x--x--x--x--7-----x--x--7-----x--x--x--x----|
----------------------------------------------------------------|

  e     s  s  e     s  s  s  s  e     s  s  e     s  s  s  s

----------------------------------------------------------------|
--7-----------7-----------------7-----------7-------------------|
--7-----x--x--7-----x--x--x--x--7-----x--x--7-----x--x--x--x----|
----------------------------------------------------------------|

  e     s  s  e     s  s  s  s  e     s  s  e     s  s  s  s

----------------------------------------------------------------|
--4-----------4-----------------4-----------4-------------------|
--5-----x--x--5-----x--x--x--x--5-----x--x--5-----x--x--x--x----|
----------------------------------------------------------------|

  e     s  s  e     s  s  s  s  e     s  s  e     s  s  s  s        W

----------------------------------------------------------------|---11--|
--9-----------9-----------------9-----------9-------------------|4--12--|
--7-----x--x--7-----x--x--x--x--7-----x--x--7-----x--x--x--x----|4--12--|
----------------------------------------------------------------|---10--|

   H                         e    E        e     s

--(11)----------------------11----12-------11---------|
--(12)-------------------------------------------14---|
--(12)------------------------------------------------|
--(10)------------------------------------------------|

   s     E        E       H                  H           e  e  e  e        W

------------------------------------------|----------------------------|-------|
-(14)---11--------------------------------|-----------------------11---|-------|
-----------------12-------9---------------|-(9)----------9--11-9-------|--12---|
------------------------------------------|----------------------------|-------|

   e    e      E       E         Q

----------------------------------------------------|
-----------------------9----------------------------|
--10----12----10----------------10------------------|
----------------------------------------------------|

  s    E        H                   q                   H     H

----------------------------------------------------|--------11-----|
----------------------------------------------------|--------12-----|
-(10)(10)-----(10)----------------------------------|--------12-----|
----------------------------------------------------|--------10-----|

    W        e     E        e     E       E         E            H  H

--(11)---|--11----12-------11---------------------------------|----------|
--(12)---|-----------------------14-------11------------------|----------|
--(12)---|-----------------------------------------12---------|--9-(9)---|
--(10)---|----------------------------------------------------|----------|

  e  e  e  e   H               H           e  e  e  e

----------------------------|----------------------------|
-----------11---------------|-----------------------9----|
--9--11-9-----12------------|-(12)---------10-12-10------|
----------------------------|----------------------------|


  s   H                       E       q                 q    H   q      W

----------------------------------------------------|----------------|--11--|
-(9)------------------------------------------------|----------------|--12--|
-----10---------------------(10)-----(10)-----------|-(10)-----------|--12--|
----------------------------------------------------|----------------|--10--|


  H                       e     E        e     s       e     E        E        H

-(11)---------------------11----12-------11---------|----------------------------------------------------|
-(12)------------------------------------------14---|-(14)---11------------------------------------------|
-(12)-----------------------------------------------|-----------------12-------9-------------------------|
-(10)-----------------------------------------------|----------------------------------------------------|


  H           e  e  e  e       H       e     e     E        E        E

----------------------------|-------|----------------------------------------------------|
-----------------------11---|-------|-----------------------9----------------------------|
-(9)----------9--11-9-------|--12---|--10----12----10----------------10------------------|
----------------------------|-------|----------------------------------------------------|


  s   e        H                  Q

----------------------------------------------------|
----------------------------------------------------|
-(10)(10)-----(10)----------------------------------|
----------------------------------------------------|


   e     s  s  e     s  s  s  s  e     s  s  e     s  s  e     q

-----------------------------------------------------------------------------|
6--6-----------6-----------------6-----------6-----7--7--7-----7-------------|
4--7-----x--x--7-----x--x--x--x--7-----x--x--7-----7--7--7-----7-------------|
-----------------------------------------------------------------------------|


  e     s  s  e     s  s  s  s  e     s  s  e     s  s  e     q

----------------------------------------------------------------------------|
--6-----------6-----------------6-----------6-----------6-----7-------------|
--7-----x--x--7-----x--x--x--x--7-----x--x--7-----x--x--7-----7-------------|
----------------------------------------------------------------------------|


  e     s  s  e     s  s  s  s  e     s  s  e     s  s  e     E        s

----------------------------------------------------------------------------|
--9-----------9-----------------9-----------9-----------9-----9-------------|
--7-----x--x--7-----x--x--x--x--7-----x--x--7-----x--x--7-----7--------x----|
----------------------------------------------------------------------------|


  e     s  s  e     s  s  s  s  e     s  s  e     s  s  s  s  q

--11----------11----------------11----------11----11-11-11-11-11------------|
--12----------12----------------12----------12----12-12-12-12-12------------|
--12----x--x--12----x--x--x--x--12----x--x--12----12-12-12-12-12------------|
----------------------------------------------------------------------------|


  e     s  s  e     s  s  s  s  e     s  s  e     s  s  e     q

----------------------------------------------------------------------------|
--6-----------6-----------------6-----------6-----7--7--7-----7-------------|
--7-----x--x--7-----x--x--x--x--7-----x--x--7-----7--7--7-----7-------------|
----------------------------------------------------------------------------|


  e     s  s  e     s  s  s  s  e     s  s  e     s  s  e     q

----------------------------------------------------------------------------|
--6-----------6-----------------6-----------6-----------6-----7-------------|
--7-----x--x--7-----x--x--x--x--7-----x--x--7-----x--x--7-----7-------------|
----------------------------------------------------------------------------|


  e     s  s  e     s  s  s  s  e     s  s  e     s  s  e     E        s

----------------------------------------------------------------------------|
--9-----------9-----------------9-----------9-----------9-----9-------------|
--7-----x--x--7-----x--x--x--x--7-----x--x--7-----x--x--7-----7--------x----|
----------------------------------------------------------------------------|


  e     s  s  e     s  s  s  s  e     s  s  e     s  s  s  s  q

--11----------11----------------11----------11----11-11-11-11-11------------|
--12----------12----------------12----------12----12-12-12-12-12------------|
--12----x--x--12----x--x--x--x--12----x--x--12----12-12-12-12-12------------|
----------------------------------------------------------------------------|


  e     s  s  e     s  s  s  s  e     s  s  e     s  s  e     q

----------------------------------------------------------------------------|
--6-----------6-----------------6-----------6-----7--7--7-----7-------------|
--7-----x--x--7-----x--x--x--x--7-----x--x--7-----7--7--7-----7-------------|
----------------------------------------------------------------------------|

  e     s  s  e     s  s  s  s  e     s  s  e     s  s  e     s  s  s  s

----------------------------------------------------------------------------|
--6-----------6-----------------6-----------6-----------6-----7--7--9--9----|
--7-----x--x--7-----x--x--x--x--7-----x--x--7-----x--x--7-----7--7--7--7----|
----------------------------------------------------------------------------|

   e     e     e     s  s  e     e     e     e     s  s  s  s

-----------------------------------------------------------------|
5----------------------------------------------------------------|
4----------------------------------------------------------------|
---2-----0-----2-----0--0--0-----2-----0-----2-----0--0--0--0----|


  e     e     e     s  s  e     e     e     e     s  s  s  s

----------------------------------------------------------------|
----------------------------------------------------------------|
----------------------------------------------------------------|
--2-----0-----2-----0--0--0-----2-----0-----2-----0--0--0--0----|


  e     e     e     s  s  e     e     e     e     s  s  s  s

----------------------------------------------------------------|
----------------------------------------------------------------|
----------------------------------------------------------------|
--2-----0-----2-----0--0--0-----2-----0-----2-----0--0--0--0----|


  e     e     e     s  s  e     e     e     e     s  s  s  s

----------------------------------------------------------------|
----------------------------------------------------------------|
----------------------------------------------------------------|
--2-----0-----2-----0--0--0-----2-----0-----2-----0--0--0--0----|


  e     e     e     s  s  e     e     e     e     s  s  s  s

----------------------------------------------------------------|
----------------------------------------------------------------|
----------------------------------------------------------------|
--2-----0-----2-----0--0--0-----2-----0-----2-----0--0--0--0----|


  e     e     e     s  s  e     e     e     e     s  s  s  s

----------------------------------------------------------------|
----------------------------------------------------------------|
----------------------------------------------------------------|
--2-----0-----2-----0--0--0-----2-----0-----2-----0--0--0--0----|


  e     e     e     s  s  e     H                       e

----------------------------------------------------------------|
----------------------------------------------------------------|
----------------------------------------------------------------|
--2-----0-----2-----0--0--0-----7-----------------------7-------|


  e     q           s  s  s  s  s  s  s  s  s  s  s  s  e

----------------------------------------------------------------|
----------------------------------------------------------------|
----------------------------------------------------------------|
--7-----7-----------10-10-12-12-10-10-12-12-12-12-12-12-12------|


  e     s  s  e     s  s  s  s  e     s  s  e     s  s  s  s

----------------------------------------------------------------|
--6-----------6-----------------6-----------6-------------------|
--7-----x--x--7-----x--x--x--x--7-----x--x--7-----x--x--x--x----|
----------------------------------------------------------------|


  e     s  s  e     s  s  s  s  e     s  s  e     s  s  s  s

----------------------------------------------------------------|
--7-----------7-----------------7-----------7-------------------|
--7-----x--x--7-----x--x--x--x--7-----x--x--7-----x--x--x--x----|
----------------------------------------------------------------|


  e     s  s  e     s  s  s  s  e     s  s  e     s  s  s  s

----------------------------------------------------------------|
--4-----------4-----------------4-----------4-------------------|
--5-----x--x--5-----x--x--x--x--5-----x--x--5-----x--x--x--x----|
----------------------------------------------------------------|


  e     s  s  e     s  s  s  s  e     s  s  e     s  s  s  s

----------------------------------------------------------------|
--9-----------9-----------------9-----------9-------------------|
--7-----x--x--7-----x--x--x--x--7-----x--x--7-----x--x--x--x----|
----------------------------------------------------------------|


  e     s  s  e     s  s  s  s  e     s  s  e     s  s  s  s

----------------------------------------------------------------|
--6-----------6-----------------6-----------6-------------------|
--7-----x--x--7-----x--x--x--x--7-----x--x--7-----x--x--x--x----|
----------------------------------------------------------------|


  e     s  s  e     s  s  s  s  e     s  s  e     s  s  s  s

----------------------------------------------------------------|
--7-----------7-----------------7-----------7-------------------|
--7-----x--x--7-----x--x--x--x--7-----x--x--7-----x--x--x--x----|
----------------------------------------------------------------|


  e     s  s  e     s  s  s  s  e     s  s  e     s  s  s  s

----------------------------------------------------------------|
--4-----------4-----------------4-----------4-------------------|
--5-----x--x--5-----x--x--x--x--5-----x--x--5-----x--x--x--x----|
----------------------------------------------------------------|


  e     s  s  e     s  s  s  s  e     s  s  e     s  s  s  s

----------------------------------------------------------------|
--9-----------9-----------------9-----------9-------------------|
--7-----x--x--7-----x--x--x--x--7-----x--x--7-----x--x--x--x----|
----------------------------------------------------------------|


  e     s  s  e     s  s  s  s  e     s  s  e     s  s  s  s

----------------------------------------------------------------|
--6-----------6-----------------6-----------6-------------------|
--7-----x--x--7-----x--x--x--x--7-----x--x--7-----x--x--x--x----|
----------------------------------------------------------------|


  e     s  s  e     s  s  s  s  e     s  s  e     s  s  s  s

----------------------------------------------------------------|
--7-----------7-----------------7-----------7-------------------|
--7-----x--x--7-----x--x--x--x--7-----x--x--7-----x--x--x--x----|
----------------------------------------------------------------|


  e     s  s  e     s  s  s  s  e     s  s  e     s  s  s  s

----------------------------------------------------------------|
--4-----------4-----------------4-----------4-------------------|
--5-----x--x--5-----x--x--x--x--5-----x--x--5-----x--x--x--x----|
----------------------------------------------------------------|


  e     s  s  e     s  s  s  s  e     s  s  e     s  s  s  s

----------------------------------------------------------------|
--9-----------9-----------------9-----------9-------------------|
--7-----x--x--7-----x--x--x--x--7-----x--x--7-----x--x--x--x----|
----------------------------------------------------------------|


  e     s  s  e     s  s  s  s  e     s  s  e     s  s  s  s

----------------------------------------------------------------|
--6-----------6-----------------6-----------6-------------------|
--7-----x--x--7-----x--x--x--x--7-----x--x--7-----x--x--x--x----|
----------------------------------------------------------------|


  e     s  s  e     s  s  s  s  e     s  s  e     s  s  s  s

----------------------------------------------------------------|
--7-----------7-----------------7-----------7-------------------|
--7-----x--x--7-----x--x--x--x--7-----x--x--7-----x--x--x--x----|
----------------------------------------------------------------|


  e     s  s  e     s  s  s  s  e     s  s  e     s  s  s  s

----------------------------------------------------------------|
--4-----------4-----------------4-----------4-------------------|
--5-----x--x--5-----x--x--x--x--5-----x--x--5-----x--x--x--x----|
----------------------------------------------------------------|


  e     s  s  e     s  s  s  s  e     s  s  e     s  s  s  s        W

----------------------------------------------------------------|---11--|
--9-----------9-----------------9-----------9-------------------|4--12--|
--7-----x--x--7-----x--x--x--x--7-----x--x--7-----x--x--x--x----|4--12--|
----------------------------------------------------------------|---10--|


   H                         e    E        e     s

--(11)----------------------11----12-------11---------|
--(12)-------------------------------------------14---|
--(12)------------------------------------------------|
--(10)------------------------------------------------|

   s     E        E       H                  H           e  e  e  e        W

------------------------------------------|----------------------------|-------|
-(14)---11--------------------------------|-----------------------11---|-------|
-----------------12-------9---------------|-(9)----------9--11-9-------|--12---|
------------------------------------------|----------------------------|-------|

   e    e      E       E         Q

----------------------------------------------------|
-----------------------9----------------------------|
--10----12----10----------------10------------------|
----------------------------------------------------|

  s    E        H                   q                   H     H

----------------------------------------------------|--------11-----|
----------------------------------------------------|--------12-----|
-(10)(10)-----(10)----------------------------------|--------12-----|
----------------------------------------------------|--------10-----|

    W        e     E        e     E       E         E            H  H

--(11)---|--11----12-------11---------------------------------|----------|
--(12)---|-----------------------14-------11------------------|----------|
--(12)---|-----------------------------------------12---------|--9-(9)---|
--(10)---|----------------------------------------------------|----------|

  e  e  e  e   H               H           e  e  e  e

----------------------------|----------------------------|
-----------11---------------|-----------------------9----|
--9--11-9-----12------------|-(12)---------10-12-10------|
----------------------------|----------------------------|


  s   H                       E       q                 q    H   q      W

----------------------------------------------------|----------------|--11--|
-(9)------------------------------------------------|----------------|--12--|
-----10---------------------(10)-----(10)-----------|-(10)-----------|--12--|
----------------------------------------------------|----------------|--10--|


  H                       e     E        e     s       e     E        E        H

-(11)---------------------11----12-------11---------|----------------------------------------------------|
-(12)------------------------------------------14---|-(14)---11------------------------------------------|
-(12)-----------------------------------------------|-----------------12-------9-------------------------|
-(10)-----------------------------------------------|----------------------------------------------------|


  H           e  e  e  e       H       e     e     E        E        E

----------------------------|-------|----------------------------------------------------|
-----------------------11---|-------|-----------------------9----------------------------|
-(9)----------9--11-9-------|--12---|--10----12----10----------------10------------------|
----------------------------|-------|----------------------------------------------------|


  s   e        H                  Q

----------------------------------------------------|
----------------------------------------------------|
-(10)(10)-----(10)----------------------------------|
----------------------------------------------------|


   e     s  s  e     s  s  e     s  s  s  s  e     s  s  e     s  s  s  s

-----------------------------------------------------------------------------|
6----------------------------------------------------------------------------|
4--7-----x--x--7-----x--x--7-----x--x--x--x--7-----x--x--7-----x--x--7--7----|
-----------------------------------------------------------------------------|


  s  s  s  s  e     s  s  e     s  s  e     s  s  s  s  e     s  s  s  s

----------------------------------------------------------------------------|
----------------------------------------------------------------------------|
--7--7--7--7--7-----x--x--7-----x--x--7-----x--x--x--x--7-----x--7--7--7----|
----------------------------------------------------------------------------|


  e     s  s  e     s  s  e     s  s  s  s  e     s  s  e     s  s  s  s

----------------------------------------------------------------------------|
----------------------------------------------------------------------------|
--7-----x--x--7-----x--x--7-----x--x--x--x--7-----x--x--7-----x--x--7--7----|
----------------------------------------------------------------------------|


  s  s  s  s  e     s  s  e     s  s  e     s  s  s  s  e     s  s  s  s

----------------------------------------------------------------------------|
----------------------------------------------------------------------------|
--7--7--7--7--7-----x--x--7-----x--x--7-----x--x--x--x--7-----x--7--7--7----|
----------------------------------------------------------------------------|


  e     s  s  e     s  s  e     s  s  s  s  e     s  s  e     s  s  s  s

----------------------------------------------------------------------------|
----------------------------------------------------------------------------|
--7-----x--x--7-----x--x--7-----x--x--x--x--7-----x--x--7-----x--x--7--7----|
----------------------------------------------------------------------------|


  e     s  s  e     s  s  s  s  e     s  s  e     s  s  e     E        s

----------------------------------------------------------------------------|
--9-----------9-----------------9-----------9-----------9-----9-------------|
--7-----x--x--7-----x--x--x--x--7-----x--x--7-----x--x--7-----7--------x----|
----------------------------------------------------------------------------|


  e     s  s  e     s  s  s  s  e     s  s  e     s  s  s  s  q

--11----------11----------------11----------11----11-11-11-11-11------------|
--12----------12----------------12----------12----12-12-12-12-12------------|
--12----x--x--12----x--x--x--x--12----x--x--12----12-12-12-12-12------------|
----------------------------------------------------------------------------|


              e  e  q       q    q    q    q

----|-----|-----------------------------------------|
----|5----|6----------------------------------------|
----|4----|4--\7-0--7\------------------------------|
----|-----|-----------------------------------------|


       q       e     e     e     e     s  s  e     e     e

-----------------------------------------------------------------|
5----------------------------------------------------------------|
4--------------0/----14----14----14----12-12-14----14----14------|
-----------------------------------------------------------------|


  e     s  s  e     s  s  e     s  s  s  s  e     s  s    e

----------------------------------------------------------------|
--6-----------6-----------6-----------------6-------------------|
--7-----x--x--7-----x--x--7-----x--x--x--x--7-----x--x----------|
----------------------------------------------------------------|


  e     e     s  s  e     s  s  e     s  s  s  s  e     s  s

----------------------------------------------------------------|
--6/----9-----------9-----------9-----------------9-------------|
--7/----10----x--x--10----x--x--10----x--x--x--x--10----x--x----|
----------------------------------------------------------------|


  e     s  s  e     s  s  e     s  s  s  s  e     s  s

----------------------------------------------------------------|
--6-----------6-----------6-----------------6-------------------|
--7-----x--x--7-----x--x--7-----x--x--x--x--7-----x--x----------|
----------------------------------------------------------------|


  e     e     s  s  e     s  s  e     s  s  s  s  e     s  s

----------------------------------------------------------------|
--6-----9-----------9-----------9-----------------9-------------|
--7-----10----x--x--10----x--x--10----x--x--x--x--10----x--x----|
----------------------------------------------------------------|


  e     s  s  e     s  s  e     s  s  s  s  e     s  s

----------------------------------------------------------------|
--6-----------6-----------6-----------------6-------------------|
--7-----x--x--7-----x--x--7-----x--x--x--x--7-----x--x----------|
----------------------------------------------------------------|


  e     e     s  s  e     s  s  e     s  s  s  s  e     s  s

----------------------------------------------------------------|
--6-----9-----------9-----------9-----------------9-----9--9----|
--7-----10----x--x--10----x--x--10----x--x--x--x--10----10-10---|
----------------------------------------------------------------|


  e     s  s  e     s  s  e     s  s  s  s  e     s  s

----------------------------------------------------------------|
--6-----------6-----------6-----------------6-------------------|
--7-----x--x--7-----x--x--7-----x--x--x--x--7-----x--x----------|
----------------------------------------------------------------|


  e     e     s  s  e     s  s  e     s  s  s  s  e     s  s

----------------------------------------------------------------|
--6-----9-----------9-----------9-----------------9-------------|
--7-----10----x--x--10----x--x--10----x--x--x--x--10----x--x----|
----------------------------------------------------------------|


  e     s  s  e     s  s  e     s  s  s  s  e     s  s

----------------------------------------------------------------|
--6-----------6-----------6-----------------6-------------------|
--7-----x--x--7-----x--x--7-----x--x--x--x--7-----x--x----------|
----------------------------------------------------------------|


  e     e     s  s  e     s  s  e     s  s  s  s  e     s  s

----------------------------------------------------------------|
--6-----9-----------9-----------9-----------9--9--9-------------|
--7-----10----x--x--10----x--x--10----x--x--10-10-10----x--x----|
----------------------------------------------------------------|


  e     s  s  e     s  s  e     s  s  s  s  e     s  s

----------------------------------------------------------------|
--6-----------6-----------6-----------------6-------------------|
--7-----x--x--7-----x--x--7-----x--x--x--x--7-----x--x----------|
----------------------------------------------------------------|


  e     e     s  s  e     s  s  e     s  s  s  s  e     s  s

----------------------------------------------------------------|
--6-----9-----------9-----------9-----------------9-----9--9----|
--7-----10----x--x--10----x--x--10----x--x--x--x--10----10-10---|
----------------------------------------------------------------|


  e     s  s  e     s  s  e     s  s  s  s  e     s  s

----------------------------------------------------------------|
--6-----------6-----------6-----------------6-------------------|
--7-----x--x--7-----x--x--7-----x--x--x--x--7-----x--x----------|
----------------------------------------------------------------|


  e     e     s  s  e     s  s  e     s  s  s  s  e     s  s

----------------------------------------------------------------|
--6-----9-----------9-----------9-----------------9-------------|
--7-----10----x--x--10----x--x--10----x--x--x--x--10----x--x----|
----------------------------------------------------------------|


  e     s  s  e     s  s  e     s  s  s  s  e     s  s

----------------------------------------------------------------|
--6-----------6-----------6-----------------6-------------------|
--7-----x--x--7-----x--x--7-----x--x--x--x--7-----x--x----------|
----------------------------------------------------------------|


  e     e     s  s  e     s  s  e     s  s  s  s  e     s  s

----------------------------------------------------------------|
--6-----9-----------9-----------9-----------------9-------------|
--7-----10----x--x--10----x--x--10----x--x--x--x--10----x--x----|
----------------------------------------------------------------|


  q     q   e    q     q    e        q     q    e   q     q     e

----------------------------------|----------------------------------|
--6-----6--------6-----6----------|--9-----9--------9-----9----------|
--7-----7--------7-----7----------|--10----10-------10----10---------|
--0-----0--------0-----0----------|--7-----7--------7-----7----------|


  q     q   e    q     q    e        q     q    e   q     q     e

----------------------------------|----------------------------------|
--6-----6--------6-----6----------|--9-----9--------9-----9----------|
--7-----7--------7-----7----------|--10----10-------10----10---------|
--0-----0--------0-----0----------|--7-----7--------7-----7----------|


  q     q   e    q     q    e        q     q    e   q     q     e

----------------------------------|----------------------------------|
--6-----6--------6-----6----------|--9-----9--------9-----9----------|
--7-----7--------7-----7----------|--10----10-------10----10---------|
--0-----0--------0-----0----------|--7-----7--------7-----7----------|


  q     q   e    q     q    e        q     q    e   q     q     e

----------------------------------|----------------------------------|
--6-----6--------6-----6----------|--9-----9--------9-----9----------|
--7-----7--------7-----7----------|--10----10-------10----10---------|
--0-----0--------0-----0----------|--7-----7--------7-----7----------|


  e     s  s  e     s  s  s  s  e     s  s  e     s  s  s  s

----------------------------------------------------------------|
--6-----------6-----------------6-----------6-------------------|
--7-----x--x--7-----x--x--x--x--7-----x--x--7-----x--x--x--x----|
----------------------------------------------------------------|


  e     s  s  e     s  s  s  s  e     s  s  e     s  s  s  s

----------------------------------------------------------------|
--7-----------7-----------------7-----------7-------------------|
--7-----x--x--7-----x--x--x--x--7-----x--x--7-----x--x--x--x----|
----------------------------------------------------------------|


  e     s  s  e     s  s  s  s  e     s  s  e     s  s  s  s

----------------------------------------------------------------|
--4-----------4-----------------4-----------4-------------------|
--5-----x--x--5-----x--x--x--x--5-----x--x--5-----x--x--x--x----|
----------------------------------------------------------------|


  e     s  s  e     s  s  s  s  e     s  s  e     s  s  s  s

----------------------------------------------------------------|
--9-----------9-----------------9-----------9-------------------|
--7-----x--x--7-----x--x--x--x--7-----x--x--7-----x--x--x--x----|
----------------------------------------------------------------|


  e     s  s  e     s  s  s  s  e     s  s  e     s  s  s  s

----------------------------------------------------------------|
--6-----------6-----------------6-----------6-------------------|
--7-----x--x--7-----x--x--x--x--7-----x--x--7-----x--x--x--x----|
----------------------------------------------------------------|


  e     s  s  e     s  s  s  s  e     s  s  e     s  s  s  s

----------------------------------------------------------------|
--7-----------7-----------------7-----------7-------------------|
--7-----x--x--7-----x--x--x--x--7-----x--x--7-----x--x--x--x----|
----------------------------------------------------------------|


  e     s  s  e     s  s  s  s  e     s  s  e     s  s  s  s

----------------------------------------------------------------|
--4-----------4-----------------4-----------4-------------------|
--5-----x--x--5-----x--x--x--x--5-----x--x--5-----x--x--x--x----|
----------------------------------------------------------------|


  e     s  s  e     s  s  s  s  e     s  s  e     s  s  s  s

----------------------------------------------------------------|
--9-----------9-----------------9-----------9-------------------|
--7-----x--x--7-----x--x--x--x--7-----x--x--7-----x--x--x--x----|
----------------------------------------------------------------|


  q           q           s  s  q           q           s   s

----------------------------------------------------------------|
--6-----------6-----------------6-----------6-------------------|
--7-----------7-----------x--x--7-----------7-----------x--x----|
----------------------------------------------------------------|


  q           q           s  s  q           q           s   s

----------------------------------------------------------------|
--9-----------9-----------------9-----------9-------------------|
--10----------10----------x--x--10----------10----------x--x----|
----------------------------------------------------------------|


  q           q           s  s  q           q           s   s

----------------------------------------------------------------|
--6-----------6-----------------6-----------6-------------------|
--7-----------7-----------x--x--7-----------7-----------x--x----|
----------------------------------------------------------------|


  q           q           s  s  q           q           s   s

----------------------------------------------------------------|
--9-----------9-----------------9-----------9-------------------|
--10----------10----------x--x--10----------10----------x--x----|
----------------------------------------------------------------|


  q           q           s  s  q           q           s   s

----------------------------------------------------------------|
--6-----------6-----------------6-----------6-------------------|
--7-----------7-----------x--x--7-----------7-----------x--x----|
----------------------------------------------------------------|


  q           q           s  s  q           q           s   s

----------------------------------------------------------------|
--9-----------9-----------------9-----------9-------------------|
--10----------10----------x--x--10----------10----------x--x----|
----------------------------------------------------------------|


  q           q           s  s  q           q           s   s

----------------------------------------------------------------|
--6-----------6-----------------6-----------6-------------------|
--7-----------7-----------x--x--7-----------7-----------x--x----|
----------------------------------------------------------------|


  q           q           s  s  q           q           s   s

----------------------------------------------------------------|
--9-----------9-----------------9-----------9-------------------|
--10----------10----------x--x--10----------10----------x--x----|
----------------------------------------------------------------|


  q     q     e  q     q     e       q     q     e  q     q     e

----------------------------------|----------------------------------|
--9-----9--------9-----9----------|--9-----9--------9-----9----------|
--10----10----x--10----10----x----|--10----10----x--10----10----x----|
--7-----7--------7-----7----------|--7-----7--------7-----7----------|


  q     q     e  q     q     e

----------------------------------||
--9-----9--------9-----9----------||
--10----10----x--10----10----x----||
--7-----7--------7-----7----------||
Suggest correction
Give kudos to tab author, rate the tab!
1 2 3 4 5
comments
print report bad tab
guest
You may want to rate the tab now too:
select rating
Wanna post a correction for this tab? Suggest correction