Oops, an error
Loading. Please wait.

Leave That Thing Alone tab

version 2
version 2

Whole song

Interactive

by Rush
3,794 views 1 this week
no commentswrite comment
1 2 3 4 5
x 3
add to favorites
×
Save as Personal and add changes to this tab that will be seen only by you. Learn more ›
×
You can save this tab as Personal to edit and correct it or add notes. All changes will be seen only by you. Learn more »
launch autoscroll
font size
0
reset
how to read this tab
guitar tuner
backing track
0:00
0:00
edit
Autoscroll
slow
fast
+/-
esc
set tempo
stop
Difficulty
intermediate
Pb-prebend     b-bend    ~vibrato      / -slide to lower pitch      sb- still bent
h- hammer-on      p – pull off           \ -slide to higher pitch
(use wammys where needed in song)
(fade in)
|--5h7--7-7-7---5-5-5-------|     Repeat------------------------------------| 14 times
|--5----5-5-5---5-5-5-------------------------------------------------------|
|---------------------------------------------------------------------------|
|---------------------------------------------------------------------------|
|---------------------------------------------------------------------------|
|---------------------------------------------------------------------------|

|-----12-----/5~~ 7~~ 3-------1-0-------0---------------------------------|
|------------------------------------------6/-----------------------------|
|-----------------------------------------------------2-5b(6)/------------|
|-------------------------------------------------------------------------|
|-------------------------------------------------------------------------|
|-------------------------------------------------------------------------|

|-----12---/5~~ 7~~ 3------1-0--------------------------------------------|
|----------------------------------------------3--------------------------|
|-------------------------------------------------5-----------------------|
|-------------------------------------------------------------------------|
|-------------------------------------------------------------------------|
|-------------------------------------------------------------------------|

|--5h7--7-7-7---5-5-5-------|     Repeat-----------------------------------| 14 times
|--5----5-5-5---5-5-5------------------------------------------------------|
|--------------------------------------------------------------------------|
|--------------------------------------------------------------------------|
|--------------------------------------------------------------------------|
|--------------------------------------------------------------------------|

|-----12-- /5~~ 7~~ 3-------1-0-------0-------------------------------------|
|--------------------------------------------------6/-----------------------|
|-----------------------------------------------------2-5b(6)/--------------|
|---------------------------------------------------------------------------|
|---------------------------------------------------------------------------|
|---------------------------------------------------------------------------|

|-----12--- /5~~ 7~~ 3------1-0------------------------------------------|
|----------------------------------------------3-------------------------|
|-------------------------------------------------5----------------------|
|------------------------------------------------------------------------|
|------------------------------------------------------------------------|
|------------------------------------------------------------------------|

|---------------------------------------------------------------------------|
|---------------------------------------------------------------------------|
|---------------------------------------------------------------------------|
|---------------------------------------------------------------------------|
|---------------5-5-5-7--------------------3-3-5-5-7------------------------|
|----5-5-8-8-------------3-2-2-5-5-7-7-7--------------3-2-2-2-3-3-----------|

|-------------------------------------------------------------------------|
|-------------------------------------------------------------------------|
|-------------------------------------------------------------------------|
|-------------------------------------------------------------------------|
|--------------5-5-5-7---------------------3-3-5-5-7----------------------|
|----5-5-8-8-------------3-2-2-5-5-7-7-7--------------3-2-2-2-3-3----5----|

                                                   -(bass)--

|----------------------------------|
|----------------------------------|
|----------------------------------|
|----------------------------------|
|-0-3-5-7-0h5h7-0----3-5-7-0h5h7---|
|----------------------------------|

|---------------------------------------------------------------------------|
|---------------------------------------------------------------------------|
|---------------------------------------------------------------------------|
|---------------------------------------------------------------------------|
|---------3------3---------3-----3---------3-----3----------3------3--------|
|----0-3-5---0h3---0---3-5---0h3---0---3-5---0h3----0---3-5---0h3-----------|

|---------------------------------------------------------------------------|
|---------------------------------------------------------------------------|
|---------------------------------------------------------------------------|
|---------------------------------------------------------------------------|
|-0-3-5-7-0h5h7-0----3-5-7-0h5h7-0----3-5-7-0h5h7-0----3-5-7-0h5h7----------|
|---------------------------------------------------------------------------|

|---------------------------------------------------------------------------|
|---------------------------------------------------------------------------|
|---------------------------------------------------------------------------|
|---------------------------------------------------------------------------|
|---------3------3---------3-----3---------3-----3----------3------3--------|
|----0-3-5---0h3---0---3-5---0h3---0---3-5---0h3----0---3-5---0h3-----------|

|---------------------------------------------------------------------------|
|---------------------------------------------------------------------------|
|---------------------------------------------------------------------------|
|---------------------------------------------------------------------------|
|-0-3-5-7-0h5h7-0----3-5-7-0h5h7-0----3-5-7-0h5h7-0----3-5-7-0h5h7----------|
|---------------------------------------------------------------------------|

|---------------------------------------------------------------------------|
|---------------------------------------------------------------------------|
|---------------------------------------------------------------------------|
|---------------------------------------------------------------------------|
|---------3------3---------3-----3---------3-----3----------3------3--------|
|----0-3-5---0h3---0---3-5---0h3---0---3-5---0h3----0---3-5---0h3-----------|

|---------------------------------------------------------------------------|
|---------------------------------------------------------------------------|
|---------------------------------------------------------------------------|
|---------------------------------------------------------------------------|
|-0-3-5-7-0h5h7-0----3-5-7-0h5h7-0----3-5-7-0h5h7-0----3-5-7-0h5h7----------|
|---------------------------------------------------------------------------|

Vibrate every note pretty much*timing is key*
SOLO
|-----2-5-------0-2~---0----7~~----0-2-5~----5-5-5h7p5/---2-2-2h5p2-2h5p2---|
|--1~---------3-----------3-------------------------------------------------|
|---------------------------------------------------------------------------|
|---------------------------------------------------------------------------|
|---------------------------------------------------------------------------|
|---------------------------------------------------------------------------|

|------------------------------------------------\4-5-7b~-7-5-7-8(9)/-------|
|-5--5-7-5-2-----------------\7-10-7~-0-7-0---3~~~--------------------------|
|--------------2------------------------------------------------------------|
|---------------------------------------------------------------------------|
|---------------------------------------------------------------------------|
|---------------------------------------------------------------------------|

|-5~~/----12~~10-12--13b-10---16b—pb18---- (sb)-16---18-16-18-18~~-18-18-----|
|----------------------------------------------------------------------------|
|----------------------------------------------------------------------------|
|----------------------------------------------------------------------------|
|----------------------------------------------------------------------------|
|----------------------------------------------------------------------------|

|-(sb)-19~~-18-19-18-20~~-18h19p18--20~~19-20-19-20-19~~-19-19-20~----------|
|---------------------------------------------------------------------------|
|---------------------------------------------------------------------------|
|---------------------------------------------------------------------------|
|---------------------------------------------------------------------------|
|---------------------------------------------------------------------------|

|-20-18-20-18-20-18-20/-----------------------------------------------------|
|---------------------------------------------------------------------------|
|---------------------------------------------------------------------------|
|---------------------------------------------------------------------------|
|---------------------------------------------------------------------------|
|---------------------------------------------------------------------------|
     Finished… then

|---------------------------------------------------------------------------|
|---------------------------------------------------------------------------|
|---------------------------------------------------------------------------|
|---------------------------------------------------------------------------|
|----------3-----3---------3-------3---------3-------3--------3-------3-----|
|----0-3-5---0h3---0---3-5-----0h3---0---3-5-----0h3---0---3-5----0h3-------|


|-----12-- /5~~ 7~~ 3-------1-0-------0-------------------------------------|
|--------------------------------------------------6/-----------------------|
|-----------------------------------------------------2-5b(6)/--------------|
|---------------------------------------------------------------------------|
|---------------------------------------------------------------------------|
|---------------------------------------------------------------------------|

|-----12--- /5~~ 7~~ 3~~------1-0-------------------------------------------|
|------------------------------------------------3--------------------------|
|---------------------------------------------------5-----------------------|
|---------------------------------------------------------------------------|
|---------------------------------------------------------------------------|
|---------------------------------------------------------------------------|

|-----12-- /5~~ 7~~ 3-------1-0-------0-------------------------------------|
|--------------------------------------------------6/-----------------------|
|-----------------------------------------------------2-5b(6)/--------------|
|---------------------------------------------------------------------------|
|---------------------------------------------------------------------------|
|---------------------------------------------------------------------------|

|-----12--- /5~~ 7~~ 3~~------1-0-------------------------------------------|
|------------------------------------------------3--------------------------|
|---------------------------------------------------5-----------------------|
|---------------------------------------------------------------------------|
|---------------------------------------------------------------------------|
|---------------------------------------------------------------------------|

|---------------------------------------------------------------------------|
|---------------------------------------------------------------------------|
|---------------------------------------------------------------------------|
|---------------------------------------------------------------------------|
|---------------5-5-5-7--------------------3-3-5-5-7------------------------|
|----5-5-8-8-------------3-2-2-5-5-7-7-7--------------3-2-2-2-3-3-----------|

|---------------------------------------------------------------------------|
|---------------------------------------------------------------------------|
|---------------------------------------------------------------------------|
|---------------------------------------------------------------------------|
|---------------5-5-5-7--------------------3-3-5-5-7------------------------|
|----5-5-8-8-------------3-2-2-5-5-7-7-7--------------3-2-2-2-3-3----5------|



FINISHING BASS SOLO

(fade in)
|--5h7--7-7-7---5-5-5--|    Keep Repeating
|--5----5-5-5---5-5-5--|
|----------------------|
|----------------------|
|----------------------|
|----------------------|

|--12~--5~--7~--3~~~~----12~--5~---7~--3~~~----------------------|
|----------------------------------------------------------------|
|----------------------------------------------------------------|
|----------------------------------------------------------------|
|----------------------------------------------------------------|
|----------------------------------------------------------------|

|--12~--5~--7~--3wammy down and hold ------(geddy goes on)------|
|---------------------------------------------------------------|
|---------------------------------------------------------------|
|----------------------------------------------------DONE!------|
|---------------------------------------------------------------|
|---------------------------------------------------------------|
Suggest correction
Creating personal tab
Creating personal tab
You can edit any tab online and save it as your Personal.

You can edit, replace or remove any tab part or add personal notes – all changes will be seen only by you.

Personal tabs can be accessed anytime from any device, even offline.
Learn more »
Give kudos to tab author, rate the tab!
1 2 3 4 5
comments
print report bad tab
guest
Wanna post a correction for this tab? Suggest correction