Oops, an error
Loading. Please wait.
We have an official Limelight tab made by UG professional guitarists. Check out the tab »
×
by Rush
372 views 1 this week
no commentswrite comment
1 2 3 4 5
3 more votes to show rating
add to favorites
×
Save as Personal and add changes to this tab that will be seen only by you. Learn more ›
×
You can save this tab as Personal to edit and correct it or add notes. All changes will be seen only by you. Learn more »
launch autoscroll
font size
0
reset
guitar tuner
backing track
0:00
0:00
edit
Autoscroll
slow
fast
+/-
esc
set tempo
stop
Author
Difficulty
Neil Peart
                                             E.   T  T  H         Q     
C||-------|-------|-------|-------|-------|----------------------------|
C||-------|-------|-------|-------|-------|------------43--------43----|
C||-------|-------|-------|-------|-------|------------41--------41----|
C||-------|-------|-------|-------|-------|------35-36-----------36----|
C||-------|-------|-------|-------|-------|----------------------------|
C||-------|-------|-------|-------|-------|----------------------------|


  E  T  T  T  T  E   E   E   E  S  S. S.    E   E   E   E   E   E   E   E   
----------------------------------57-57-|--57--46--46--46--46--46--46--46--|
----------------40--40------40----------|----------40--------------40------|
----------------------------------------|----------------------------------|
-------35-35-36---------36--------36----|--36--------------36--------------|
----------------------------------------|----------------------------------|
----------------------------------------|----------------------------------|


   E   E   E   E   E   E      E   E   E   E   E   E   E   E   
--46--46--46--46--46--46--|--57--46--46--46--46--46--46--46--|
----------40------40------|----------40--------------40------|
--------------------------|----------------------------------|
--36--36------36----------|--36--------------36--36----------|
--------------------------|----------------------------------|
--------------------------|----------------------------------|


   E   E   E   E   E   E      E   E   E   E   E   E   E   E   
--46--46--46--46--46--46--|--57--46--46--46--46--46--46--46--|
----------40--------------|----------40--------------40------|
--------------------------|----------------------------------|
--36--36----------36--36--|--36--------------36--36----------|
--------------------------|----------------------------------|
--------------------------|----------------------------------|


   E   E   E   E   E   E      E   E   E   E   E   E   E   E   
--46--46--46--46--46--46--|--57--46--46--46--46--46--46--46--|
----------40------40------|--40------40--------------40------|
--------------------------|----------------------------------|
--36--36------36----------|------36----------36--36------36--|
--------------------------|----------------------------------|
--------------------------|----------------------------------|


   E   S  S  S  S  S  S  S  S  S  S  
--46--------48-48-------------------|
------40-40-------47-47-------------|
------------------------45-45-------|
--36--------------------------41-41-|
------------------------------------|
------------------------------------|


   Q     E   E   E   E   Q     E   E   E   E   
--57----46------46------46----46------46------|
--------40--------------40------------40------|
----------------------------------------------|
--36--------36------36------------36------36--|
----------------------------------------------|
----------------------------------------------|


   Q     Q     E   E   E   E   E   E   E   E   
--44----57----46------46------46------46------|
--------40------------40--------------40------|
----------------------------------------------|
--36--------------36------36------36------36--|
----------------------------------------------|
----------------------------------------------|


   Q     Q     E   E   E   E   E   E   E   E   
--44----57----46------46------46------46------|
--------40------------40--------------40------|
----------------------------------------------|
--36--------------36------36------36------36--|
----------------------------------------------|
----------------------------------------------|


   Q     E   E   E   E   Q     E   E   Q        E   E   E   E  Q.      E   
--57----46------46------46----46------46----|--57--57--57--57---------57--|
--------40--------------40------------40----|-------------------------49--|
--------------------------------------------|-----------------------------|
--36--------36------36------------36--------|--36------36-------------36--|
--------------------------------------------|-----------------------------|
--------------------------------------------|-----------------------------|


   S  S  E   S  S  E   S  S  E   S  S  E      S  S  E   S  S  E   S  S  E   
---L-42-46--42-42-46--42-42-46--42-42-46--|--42-42-46--42-42-46--42-42-46--|
------------40------------------40--------|------------40--------40--------|
------------------------------------------|--------------------------------|
----------------------36------------------|--36------------------36--------|
------------------------------------------|--------------------------------|
------------------------------------------|--------------------------------|


   S  S  E   S  S  E   S  S  E   S  S  E      S  S  E   S  S  S  S  S  S  S  S  
--57-42-46--42-42-46--42-42-46--42-42-46--|--42-42-46--44----45-45-43-43-------|
------------40------------------40--------|------------40-40-------------40-40-|
------------------------------------------|------------------------------------|
--36------------------36------------------|--36--------------------------------|
------------------------------------------|------------------------------------|
------------------------------------------|------------------------------------|


   Q     E   E   E   E   Q     E   E   E   T  T  T  T  
--57----46------46------46----46------46--------------|
--------40--------------40------------40--40-40-40-40-|
------------------------------------------------------|
--36--------36------36------------36------------------|
------------------------------------------------------|
------------------------------------------------------|


   Q     Q     E   E   E   E   E   E   E   E   
--44----57----46------46------46------46------|
--------40------------40--------------40------|
----------------------------------------------|
--36--------------36------36------36------36--|
----------------------------------------------|
----------------------------------------------|


   E   E   Q     E   E   E   E   E   E   E   E   
--44------57----46------46------46------46------|
----------40------------40--------------40--40--|
------------------------------------------------|
--36--36------------36------36------36----------|
------------------------------------------------|
------------------------------------------------|


   Q     E   E   E   E   Q     E   E      S  E      E   E   E   E  Q.      E   
--57----46------46------46----46----------------|--57--57--57--57---------57--|
--------40--------------40------------40g40-----|-----------------------------|
------------------------------------------------|-----------------------------|
--36--------36------36------------36--------36--|--36------36-------------36--|
------------------------------------------------|-----------------------------|
------------------------------------------------|-----------------------------|


   E   E   E   E   E   E   E   E      E   E   E   S  S  S  S  S  S  
--46--46--46--46--46--46--46--46--|--46--46--46--45-45-------------|
----------40--------------40------|----------40--------43-43-------|
----------------------------------|--------------------------43-43-|
------------------36--36----------|--36--36------------------------|
----------------------------------|--------------------------------|
----------------------------------|--------------------------------|


   E   S  S  E   E   E   E      E   S  S  E   E   E   E   
--57--51-51-51--51--51--51--|--51--51-51-51--51--51--51--|
--------------------40------|--------------------40------|
----------------------------|----------------------------|
--36------------36----------|--36------------36----------|
----------------------------|----------------------------|
----------------------------|----------------------------|


   E   S  S  E   E   E   E      E   S  S  E   E   E   E   
--51--51-51-51--51--51--51--|--51--51-51-51--51--51--51--|
--------------------40------|------52------------40------|
----------------------------|----------------------------|
--36------------36----------|--36------------36----------|
----------------------------|----------------------------|
----------------------------|----------------------------|


   E   S  S  E   E   E   E      E   S  S  E   E   E   E   
--51--51-51-51--51--51--51--|--51--51-51-51--51--51--51--|
--------------------40------|--------------------40------|
----------------------------|----------------------------|
--36------------36----------|--36------------36----------|
----------------------------|----------------------------|
----------------------------|----------------------------|


   E   S  S  E   E   E   E      E   E   E   E   E   E   E   E   
--51--51-51-51--51--57--51--|--57--46--46--46--46--46--46--46--|
--------------------40--40--|----------40--------------40------|
----------------------------|----------------------------------|
--36------------36----------|--36--36------36--36--36------36--|
----------------------------|----------------------------------|
----------------------------|----------------------------------|


   E   E   E   E   E   E   E   E      E   E   E   E   E   E   E   E   
--46--46--46--46--46--46--46--46--|--46--46--46--46--46--46--46--46--|
----------40--------------40------|----------40--------------40------|
----------------------------------|----------------------------------|
--36--36------36--36--36------36--|--36--36------36--36--36------36--|
----------------------------------|----------------------------------|
----------------------------------|----------------------------------|


   E   E   E   E   E   E   E   S  S     E   E   E   E   E   E   E   E   
--46--46--46--46--46--46--46--------|--57--46--46--46--46--46--46--46--|
----------40--------------40--40-40-|----------40--------------40------|
------------------------------------|----------------------------------|
--36--36------36--36--36------------|--36--36------36--36--36------36--|
------------------------------------|----------------------------------|
------------------------------------|----------------------------------|


   E   E   E   E   E   E   E   E      E   E   E   E   E   E   E   E   
--46--46--46--46--46--46--46--46--|--57--46--46--46--46--46--46--46--|
----------40--------------40------|----------40--------------40------|
----------------------------------|----------------------------------|
--36--36------36--36--36------36--|--36--36------36--36--36------36--|
----------------------------------|----------------------------------|
----------------------------------|----------------------------------|


   E   E   E   E      E   E   E   E      E   S  S  E   E   E   E   
--46--46--46--46---------57--49--49--|--57--51-51-51--51--57--51--|
----------40------40g40--------------|--49----------------40------|
-------------------------------------|----------------------------|
--36--36------36---------36--36--36--|--36------------36----------|
-------------------------------------|----------------------------|
-------------------------------------|----------------------------|


   E   S  S  E   E   E   E      E   S  S  E   E   E   E   
--51--51-51-51--51--57--51--|--51--51-51-51--51--57--51--|
--------------------40------|--------------------40------|
----------------------------|----------------------------|
--36------------36----------|--36------------36----------|
----------------------------|----------------------------|
----------------------------|----------------------------|


   E   E   E   E   E   E   E   E      E   E   E   E   E   E   
--57--46--46--46--46--46--46--46--|--46--46--46--46--46--46--|
----------40--------------40------|----------40------40--40--|
----------------------------------|--------------------------|
--36--------------36--36----------|--36--36------36----------|
----------------------------------|--------------------------|
----------------------------------|--------------------------|


   E   E   E   E   E   E   E   E      E   E   E   E   E   E   
--57--46--46--46--46--46--46--46--|--46--46--46--46--46--46--|
--------------40------40----------|------40----------40--40--|
----------------------------------|--------------------------|
--36--36----------------------36--|----------36--36----------|
----------------------------------|--------------------------|
----------------------------------|--------------------------|


   Q     E   E   E   E   Q     E   E      E      E   
--57----46------46------46----46--------------------|
--------40--------------40------------40g40--40g40--|
----------------------------------------------------|
--36--------36------36------------36----------------|
----------------------------------------------------|
----------------------------------------------------|


   Q     Q     E   E   E   E   E   E   E   E   
--44----57----46------46------46------46------|
--------40------------40--------------40------|
----------------------------------------------|
--36--------------36------36------36------36--|
----------------------------------------------|
----------------------------------------------|


   E   S  S  Q     E   E   E   E   E   E   E   S  S  
--44--------57----46------46------46------46--------|
------------40------------40--------------40--40-40-|
----------------------------------------------------|
--36--36-36-----------36------36------36------------|
----------------------------------------------------|
----------------------------------------------------|


   Q     E   E   E   E   Q     E   E      E      E   
--57----46------46------46----46--------------------|
--------40--------------40------------40g40--40g40--|
----------------------------------------------------|
--36--------36------36------------36----------------|
----------------------------------------------------|
----------------------------------------------------|


   E   E   E   E   Q     E   E      S  S  E   S  S  E   S  S  E   S  S  E   
--57--57--57--57------------57--|---L-42-46--42-42-46--42-42-46--42-42-46--|
----------------------------49--|------------40------------------40--------|
--------------------------------|------------------------------------------|
--36------36------36----36--36--|----------------------36------------------|
--------------------------------|------------------------------------------|
--------------------------------|------------------------------------------|


   S  S  E   S  S  E   S  S  S  S     S  S  E   S  S  E   S  S  E   S  S  E   
--42-42-46--42-42-46--42-42-------|--57-42-46--42-42-46--42-42-46--42-42-46--|
------------40--------40----40-40-|------------40------------------40--------|
----------------------------------|------------------------------------------|
--36------------------------------|--36------------------36------------------|
----------------------------------|------------------------------------------|
----------------------------------|------------------------------------------|


   S  S  E   S  S  S  S  T  T  T  T  T  T  T  T  
--42-42-46--------------------------------------|
------------40-40-40-40-40-40-40-40-40-40-40-40-|
------------------------------------------------|
--36--------------------------------------------|
------------------------------------------------|
------------------------------------------------|


   Q     E   E   E   E   Q     E   E   T  T  T  T  T  T  T  T  
--57----46------46------46----46------------------------------|
--------40--------------40------------40-40-40-40-40-40-40-40-|
--------------------------------------------------------------|
--36--------36------36------------36--------------------------|
--------------------------------------------------------------|
--------------------------------------------------------------|


   Q     Q     E   E   E   E   E   E   E   E   
--44----57----46------46------46------46------|
--------40------------40--------------40------|
----------------------------------------------|
--36--------------36------36------36------36--|
----------------------------------------------|
----------------------------------------------|


   E   S  S  Q     E   E   E   E   E   E   E   S  S  
--44--------57----46------46------46------46--45----|
------------40------------40--------------40-----43-|
----------------------------------------------------|
--36--36-36-----------36------36------36------------|
----------------------------------------------------|
----------------------------------------------------|


   Q     E   E   E   E   Q     E   E   T  T  T  T  T  T  T  T  
--57----46------46------46----46------------------------------|
--------40--------------40------------40-40-40-40-40-40-40-40-|
--------------------------------------------------------------|
--36--------36------36------------36--------------------------|
--------------------------------------------------------------|
--------------------------------------------------------------|


   E   E   E   E   Q     E   E      E   E   E   E   E   E   E   E   
--57--57--57--57--55----55--57--|--46--46--46--46--46--46--46--46--|
------------------54----54--49--|----------40--------------40------|
--------------------------------|----------------------------------|
--36------36------36----36--36--|------------------36--36----------|
--------------------------------|----------------------------------|
--------------------------------|----------------------------------|


   E      E   E   S  E   S  E      E   S  S  E   E   E   E   
--46--50g50--------------------|--57--51-51-51--51--51--51--|
-------------48--48-----45-----|--------------------40------|
--------------------47-----43--|----------------------------|
--36-----36------36--------36--|--36------------36----------|
-------------------------------|----------------------------|
-------------------------------|----------------------------|


   E   S  S  E   E   E   E      E   S  S  E   E   E   E   
--51--51-51-51--51--51--51--|--51--51-51-51--51--51--51--|
--------------------40------|--------------------40------|
----------------------------|----------------------------|
--36------------36----------|--36------------36----------|
----------------------------|----------------------------|
----------------------------|----------------------------|


   E   S  S  E   E   E   E      E   S  S  E   E   E   E   
--51--51-51-51--51--51--51--|--51--51-51-51--51--51--51--|
------52------------40------|--------------------40------|
----------------------------|----------------------------|
--36------------36----------|--36------------36----------|
----------------------------|----------------------------|
----------------------------|----------------------------|


   E   S  S  E   E   E   E      E   S  S  E   E   E   E   
--51--51-51-51--51--51--51--|--51--51-51-51--51--57--51--|
--------------------40------|--------------------40--40--|
----------------------------|----------------------------|
--36------------36----------|--36------------36----------|
----------------------------|----------------------------|
----------------------------|----------------------------|


   E   E   E   E   E   E   E   E      E   E   E   E   E   E   E   E   
--57--46--46--46--46--46--46--46--|--46--46--46--46--46--46--46--46--|
----------40--------------40------|----------40--------------40------|
----------------------------------|----------------------------------|
--36--36------36--36--36------36--|--36--36------36--36--36------36--|
----------------------------------|----------------------------------|
----------------------------------|----------------------------------|


   E   E   E   E   E   E   E   E      E   E   E   E   E   E   S  S  S  S  
--46--46--46--46--46--46--46--46--|--46--46--46--46--46--46--------------|
----------40--------------40------|--40--40--40--40--40--40--40-40-40-40-|
----------------------------------|--------------------------------------|
--36--36------36--36--36------36--|--------------------------------------|
----------------------------------|--------------------------------------|
----------------------------------|--------------------------------------|


   E   E   E   E   E   E   E   E      E   E   E   E   E   E   E   E   
--57--46--46--46--46--46--46--46--|--46--46--46--46--46--46--46--46--|
----------40--------------40------|----------40--------------40--40--|
----------------------------------|----------------------------------|
--36--36------36--36--36------36--|--36--36------36--36--36----------|
----------------------------------|----------------------------------|
----------------------------------|----------------------------------|


   E   E   E   E   E   E   E   E      E   E   E   E   E   E   E   E   
--57--46--46--46--46--57--46--46--|--57--46--46--57--46--46--57--46--|
----------40----------40----------|--40----------40----------40------|
----------------------------------|----------------------------------|
--36--36------36--36------36--36--|------36--36------36--36------36--|
----------------------------------|----------------------------------|
----------------------------------|----------------------------------|


   E   E   E   E   E   E   E   E      E   E  Q    H         
--57--57--57--57--57--57--57--57--|--57--57----------------|
--49--49--49--49--49--49--49--49--|--49--49----------------|
----------------------------------|------------------------|
--36--36--36--36--36--36--36--36--|--36--------------------|
----------------------------------|------------------------|
----------------------------------|------------------------|


   Q     Q     E   E      Q     E   E   E   E      Q     E   E   E   E   
--57----51----51------|--51----51------51------|--51----51------51------|
--49------------------|--40--------------------|------------------------|
----------------------|------------------------|------------------------|
--36--------------36--|------------36------36--|------------36------36--|
----------------------|------------------------|------------------------|
----------------------|------------------------|------------------------|


   E   E   E   E   E   E      Q     Q     E   E      Q     E   E   E   E   
--51------51------51------|--51----51----51------|--51----51------51------|
--40----------------------|----------------------|--40--------------------|
--------------------------|----------------------|------------------------|
------36------36------36--|--36--------------36--|------------36------36--|
--------------------------|----------------------|------------------------|
--------------------------|----------------------|------------------------|


   Q     E   E   E.   S     E   E   S  S  S  S  S  S  S  S  
--51----51------51------|--51--51--51-51-51-51----51-51----|
----------------40---40-|----------------------40-------40-|
------------------------|----------------------------------|
--36--------36----------|--36--36--------36-36-------------|
------------------------|----------------------------------|
------------------------|----------------------------------|


   E   S  S  E   E   E   E      E   S  S  E   E   E   E   
--51--51-51-51--51--51--51--|--51--51-51-51--51--51--51--|
--------------------40------|--------------------40------|
----------------------------|----------------------------|
--36------------36------36--|--36------------36------36--|
----------------------------|----------------------------|
----------------------------|----------------------------|


                         |--3--|             |--3--|            
   E   S  S  E   E   E   S  S  S     E   E   S  S  S  E   Q     
--51--51-51-51--51--51-----------|------57---------------57----|
--------------------40--47-43-43-|--43--40--45-43-43-43--40----|
---------------------------------|-----------------------------|
--36------------36---------------|------36---------------36----|
---------------------------------|-----------------------------|
---------------------------------|-----------------------------|


   E   E   E   E   E   E      E   S  S  E   E   E   E   
--57--51--51--51--51--51--|--51--51-51-51--51--51--51--|
--49--------------40------|--------------------40------|
--------------------------|----------------------------|
--36----------36------36--|--36------------36------36--|
--------------------------|----------------------------|
--------------------------|----------------------------|


   E   S  S  E   E   E   S  S     E   E   S  S  S  S  S  E.   
--51--51-51-51--51--51--51----|--51--51--45-45----------49---|
--------------------40-----40-|----------------43-43---------|
------------------------------|----------------------41------|
--36------------36------36----|--36--36-----------------36---|
------------------------------|------------------------------|
------------------------------|------------------------------|


       |--3--|                               |--3--|                        
   E   S  S  S  S  S  S  S  S  S  E      E   S  S  S  S  S  S  S  S  S  E   
--57-----------------47-47-------57--|--57-----------------45-45-------57--|
------40-40-40-40-40-------45-45-----|------47-47-47-47-47-------43-43-----|
-------------------------------------|-------------------------------------|
--36-----------------------------36--|--36-----------------------------36--|
-------------------------------------|-------------------------------------|
-------------------------------------|-------------------------------------|


   E   S  S  S  S  S  S  E   E      E   E   E   E   E   E   
--57--------------------57--57--|--57--51--51--51--51--51--|
------45----45----45------------|----------40--------------|
---------43----43----43---------|--------------------------|
--36--36----36----36----36--36--|--36--------------36--36--|
--------------------------------|--------------------------|
--------------------------------|--------------------------|


   E   E   E   E   E   E      E   E   E   E   E   E   
--51--51--51--51--51--51--|--51--51--51--51--51--51--|
--40--------------40------|----------40--------------|
--------------------------|--------------------------|
----------36--36----------|--36--36----------36--36--|
--------------------------|--------------------------|
--------------------------|--------------------------|


   E   E   E   E   E   E      E   E   E   E   E   E   
--57--57--57--57--57--57--|--57--51--51--51--51--51--|
--------------------------|----------40--------------|
--------------------------|--------------------------|
--36--36--36--36--36--36--|--36--------------36--36--|
--------------------------|--------------------------|
--------------------------|--------------------------|


   E   E   E   E   E   E      E   E   E   E   E   E   
--51--51--51--51--51--51--|--51--51--51--51--51--51--|
--40--------------40------|----------40--------------|
--------------------------|--------------------------|
----------36--36----------|--36--36----------36--36--|
--------------------------|--------------------------|
--------------------------|--------------------------|


   E   E   E   E   E   E      E   E   E   E   E   E   
--51--51--51--51--57--51--|--57--51--57--51--57--51--|
--40--------------40------|----------40--------------|
--------------------------|--------------------------|
----------36--36----------|--36--36----------36--36--|
--------------------------|--------------------------|
--------------------------|--------------------------|


   E   E   E   E   E   E      E   S  S  S  S  S  S  S  S  S  S  
--57--51--51--51--51--51--|--51--------------------45-45-------|
--40--------------40------|------40-40-40-40-40-40-------43-43-|
--------------------------|------------------------------------|
----------36--36----------|--36--------------------------------|
--------------------------|------------------------------------|
--------------------------|------------------------------------|


   E   E   E   E   E   E      E   E   E   E   E   E   
--57--51--51--51--51--51--|--51--51--51--51--51--51--|
----------40--------------|--40--------------40------|
--------------------------|--------------------------|
--36--------------36--36--|----------36--36----------|
--------------------------|--------------------------|
--------------------------|--------------------------|


   E   E   E   E   E   E      E   E   E   E   E   E   
--51--51--51--51--51--51--|--51--51--51--51--51--51--|
----------40--------------|--40--------------40------|
--------------------------|--------------------------|
--36--36----------36--36--|----------36--36----------|
--------------------------|--------------------------|
--------------------------|--------------------------|


   E   E   E   E   E   E      E   E   E   E   E   E   
--51--51--51--51--51--51--|--51--51--51--51--51--51--|
----------40--------------|--40--------------40------|
--------------------------|--------------------------|
--36--36----------36--36--|----------36--36----------|
--------------------------|--------------------------|
--------------------------|--------------------------|


   E   E   E   E   E   E      E   E   E   E   E   E   E   E   
--57--57--57--57--57--57--|--57--46--57--46--46--46--46--46--|
--------------------------|----------40--------------40------|
--------------------------|----------------------------------|
--36--36--36--36--36--36--|--36--36----------36--36----------|
--------------------------|----------------------------------|
--------------------------|----------------------------------|


   E   E   E   E   E   E   E   E      E   E   E   E   E   E   E   E   
--46--46--57--46--46--46--46--46--|--46--46--57--46--46--46--46--46--|
----------40--------------40------|----------40--------------40------|
----------------------------------|----------------------------------|
--36--36----------36--36----------|--36--36----------36--36----------|
----------------------------------|----------------------------------|
----------------------------------|----------------------------------|


   E   E   E   E   E   E   E   E      E   E   E   E   E   E   E   E   
--46--46--57--46--46--46--46--46--|--46--46--57--46--46--46--46--46--|
----------40--------------40------|----------40--------------40------|
----------------------------------|----------------------------------|
--36--36----------36--36----------|--36--36----------36--36----------|
----------------------------------|----------------------------------|
----------------------------------|----------------------------------|


   E   E   E   E   E   E   E   E      E   E   E   E   E   E   E   E   
--46--46--57--46--46--46--46--46--|--46--46--57--46--46--46--46--46--|
----------40--------------40------|----------40--------------40------|
----------------------------------|----------------------------------|
--36--36----------36--36----------|--36--36----------36--36----------|
----------------------------------|----------------------------------|
----------------------------------|----------------------------------|


   E   E   E   E   E   E   E   E      E   E   E   E   E   E   E   E   
--46--57--46--46--57--46--57--46--|--49--46--46--46--46--46--46--46--|
------40----------40------40------|----------40--------------40------|
----------------------------------|----------------------------------|
--36------36--36------36----------|--36--36----------36--36----------|
----------------------------------|----------------------------------|
----------------------------------|----------------------------------|


   E   E   E   E   E   E   E   E      E   E   E   E   E   E   E   E   
--46--57--46--46--46--57--46--46--|--46--57--46--46--57--46--57--46--|
------40--------------40----------|------40----------40------40------|
----------------------------------|----------------------------------|
--36------36--36--36------36--36--|--36------36--36------36----------|
----------------------------------|----------------------------------|
----------------------------------|----------------------------------|


   E   E   E   E   E   E   E   E      E   E   E   E   E   E   E   E   
--49--46--46--46--46--46--46--46--|--46--57--46--46--57--46--46--57--|
----------40--------------40------|------40----------40----------40--|
----------------------------------|----------------------------------|
--36--36----------36--36----------|--36------36--36------36--36------|
----------------------------------|----------------------------------|
----------------------------------|----------------------------------|


   E   E   E   E   S  S  S  S  S  S  S  S     E   E   E   E   E   E   E   E   
--46--46--57--46--------47-47-------------|--57--51--51--51--51--51--51--51--|
----------40------40-40-------45-45-------|----------40--------------40------|
------------------------------------43-43-|----------------------------------|
--36--36----------------------------------|--36--------------36--36----------|
------------------------------------------|----------------------------------|
------------------------------------------|----------------------------------|


   E   E   E   E   E   E   E   E      E   E   E   E   E   E   E   E   
--57--51--57--51--51--51--51--51--|--57--51--57--51--51--51--51--51--|
----------40--------------40------|----------40--------------40------|
----------------------------------|----------------------------------|
--36--36----------36--36----------|--36--36----------36--36----------|
----------------------------------|----------------------------------|
----------------------------------|----------------------------------|


   |--3--|  |--3--|  |--3--|                                
   S  S  S  S  S  S  S  S  S  S  S  S  S  S  S  S  S  S  S  
--------------------47-47-47-47-47-------------------------|
--40-40-40-40-40-40----------------------40----------------|
-----------------------------------45-45----43-43----------|
--------------------------------------------------41-41-41-|
-----------------------------------------------------------|
-----------------------------------------------------------|


              |--3--|        |--3--|                 
   E   E   S  S  S  S  S  S  S  S  S  S  S  S  S  S  
--57------------------------------------------------|
----------45-45-45-45----40-40----------------------|
-------------------------------43-43----43----43----|
--36--36--------------36-36----------36-41-36-41-36-|
----------------------------------------------------|
----------------------------------------------------|


           |--3--|                                                           
   E   E   S  S  S  S  T  T  T  T  T  T  T  T  T  T  T  T  T  T  T  T  T  T  
--49--49--------------------------------------------------------------------|
----------------------------------------------------------------------------|
----------43-43-43-43-------41-43-------41-43-------41-43-------41-43-------|
--36--36--------------35-36-------35-36-------35-36-------35-36-------35-36-|
----------------------------------------------------------------------------|
----------------------------------------------------------------------------|


   E   E   E   E   E   E      Q.      E   Q     
------49--57--49--57--49--|--49------49--57----|
--40----------------------|--57----------------|
--------------------------|--------------------|
------36--36--36--36--36--|--36----------------|
--------------------------|--------------------|
--------------------------|--------------------|


   |--3--|  |--3--|  |--3--|  |--3--|  |--3--|  |--3--|  
   S  S  S  S  S  S  S  S  S  S  S  S  S  S  S  S  S  S  
--50-50-50-50-50-50-50-50-50----------------------------|
-----------------------------48-48-48-48-48-48-48-48-48-|
--------------------------------------------------------|
--------------------------------------------------------|
--------------------------------------------------------|
--------------------------------------------------------|


   |--3--|  |--3--|  |--3--|  |--3--|  |--3--|  |--3--|  
   S  S  S  S  S  S  S  S  S  S  S  S  S  S  S  S  S  S  
--------------------------------------------------------|
--------------------------------------------------------|
--47-47-47-47-47-47-47-47-------------------------------|
--------------------------45-45-45-45-45-45-45-45-45-45-|
--------------------------------------------------------|
--------------------------------------------------------|


   |--3--|  |--3--|  |--3--|  |--3--|          |--3--|      
   S  S  S  S  S  S  S  S  S  S  S  S Q        S  S  S  S   
-------------------------------------------|-----------57-||
-------------------------------------------|--------------||
-------------------------------------------|--------------||
-------------------------------------------|-----------36-||
--43-43-43-43-43-43-43-43-43-43-43-43------|--41-41-41----||
-------------------------------------------|--------36----||




Duration Legend
---------------
W - whole
H - half
Q - quarter
E - 8th
S - 16th
T - 32nd
X - 64th
. - note dotted
|-n-|  - n-tuplets


Tablature Legend
----------------
L - tied note
x - dead note
g - grace note
(n) - ghost note
> - accentuded note
NH - natural harmonic
AH - artificial harmonic
TH - tapped harmonic
SH - semi harmonic
PH - pitch harmonic
h - hammer on
p - pull off
b - bend
br - bendRelease
pb - preBend
pbr - preBendRelease
brb - bendReleaseBend
\n/ - tremolo bar dip
\n - tremolo bar dive
-/n - tremolo bar Release up
/n\ - tremolo bar inverted dip
/n - tremolo bar return
-\n - tremolo bar Release down
S - shift slide
s - legato slide
/ -  slide into from below or out of upwards
\ -  slide into from above or out of downwards
~ - vibrato
W - wide vibrato
tr - trill
TP - tremolo picking
T - tapping
S - slap
P - pop
< - fade in
^ - brush up
v - brush down

            
            
Suggest correction
Creating personal tab
Creating personal tab
You can edit any tab online and save it as your Personal.

You can edit, replace or remove any tab part or add personal notes – all changes will be seen only by you.

Personal tabs can be accessed anytime from any device, even offline.
Learn more »
Give kudos to tab author, rate the tab!
1 2 3 4 5
comments
print report bad tab
guest
You may want to rate the tab now too:
select rating
Wanna post a correction for this tab? Suggest correction