Oops, an error
Loading. Please wait.

Marathon drums

version 1
version 1

Whole song

Interactive

by Rush
168 views 1 this week
no commentswrite comment
1 2 3 4 5
3 more votes to show rating
add to favorites
×
Save as Personal and add changes to this tab that will be seen only by you. Learn more ›
×
You can save this tab as Personal to edit and correct it or add notes. All changes will be seen only by you. Learn more »
launch autoscroll
font size
0
reset
guitar tuner
edit
Autoscroll
slow
fast
+/-
esc
set tempo
stop
Author
NOT MY TAB. I just thought it would be good to have these here on UG. Credit goes to those below.




Rush: Marathon
From the album Power Windows (Mercury Records)
Copyright 1985 Core Music Publishing
Music by Lee and Lifeson
Lyrics by Peart

Comments/corrections to Bryan McDonald 

Transcribed by Bill Wheeler and Bryan McDonald

Note: There's a bar in this tab that needed a separate rythm notation for the
ride and the snare. So what I did is write the ride above the bar (as
normal), and write the snare drum rythm below.


q = 140

      q+      q       h                  q       q       h
H|----C---------------r--------------|-----------r-------r--------------|
S|4:------------------e--------------|-----------e-------e--------------|
T|4:------------------s--------------|--x7-------s-------s--------------|
F|----X---------------t--------------|-----------t-------t--------------|

     q+      q       q       q           q       q       h
H|---C---------------r---------------|-----------r-------r--------------|
S|-------------------e---------------|-----------e-------e--------------|
T|-------------------s------x7-------|--x7-------s-------s--------------|
F|---X---------------t---------------|-----------t-------t--------------|

     q+      q       e   e   q           q       q       h
H|---C-------------------------------|-----------r-------r--------------|
S|-----------------------------------|-----------e-------e--------------|
T|----------------------x7--x7-------|--x7-------s-------s--------------|
F|---X-------------------------------|-----------t-------t--------------|

     q+      q       q       q           q       q       h
H|---C---------------r---------------|-----------r-------r--------------|
S|-------------------e---------------|-----------e-------e--------------|
T|-------------------s------x7-------|--x7-------s-------s--------------|
F|---X---------------t---------------|-----------t-------t--------------|

     q+      q       q       q           e   e   q       h
H|---C---------------r---------------|-----------r-------r--------------|
S|-------------------e---------------|-----------e-------e--------------|
T|-------------------s------x7-------|--x7--x7---s-------s--------------|
F|---X---------------t---------------|-----------t-------t--------------|

     q+      q       e   e   q           q       q       h
H|---C---------------r---------------|-----------r-------r--------------|
S|-------------------e---------------|-----------e-------e--------------|
T|-------------------s--x7--x7-------|--x7-------s-------s--------------|
F|---X---------------t---------------|-----------t-------t--------------|

     q       e   e   e   e   e   e       e   e   e   e   e   e   e   e
H|---C-------X---X---X---X---X---X---|---X---X---X---X---X---X---X---X--|
S|---X-------------------------------|---X------------------------------|
T|-----------------------------------|----------------------------------|
F|---X-------X-------X-------X-------|---X-------X-------X-------X------|
                                     ___________________________________
                                     | 1. 2. 3.
     e   e   e   e   e   e   e   e   | e   e   s s s s s s s s q
H|---X---X---X---X---X---X---X---X---|-X---X---X-X-X-X-X-X-X-X-O-------|
S|---X-------------------------------|-X-------------------------------|
T|-----------------------------------|---------------------------------|
F|---X-------X-------X-------X-------|-X-------X-------X-------X-------|
 __________________________________
 | 4.
 |   e   e   e   e   e   e   e   e       q       q       e   e   e   e
H|---X---X---X---X---X---X---X---X---|---C-------X-------X---X---X---X---|
S|---X---------------X-------X-------|-------------------X---------------|
T|-----------------------------------|-----------------------------------|
F|---X-------X-------X-------X-------|---X-------X-------X-------X-------|

     e   e   e   e   e   e   e   e       e   e   e   e   e   e   e
H|---X---X---X---X---X---X---X---X---|---X---X---X---X---X---X---X---X---|
S|-------------------X-------X-------|-------------------X---------------|
T|-----------------------------------|-----------------------------------|
F|---X-------X-------X-------X-------|---X-------X-------X-------X-------|

     e   e   e   e   q       q           e   e   e   e   e   e   e   e
H|---X---X---X---X---S-------S-------|---X---X---X---X---X---X---X---X---|
S|-------------------X-------X-------|-------------------X---------------|
T|-----------------------------------|-----------------------------------|
F|---X-------X-------X-------X-------|---X-------X-------X-------X-------|

     e   e   e   e   e   e   e   e       q       q       e   e   e   e
H|---X---X---X---X---X---X---X---X---|---C-------X-------X---X---X---X---|
S|-------------------X-------X-------|---X-------------------------------|
T|-----------------------------------|-----------------------------------|
F|---X-------X-------X-------X-------|---X-------X-------X-------X-------|

                                        Play 10 times
    e   e   s s s s s s s s q             s s s s s s s s s s s s s s s s
H|--X---X---X-X-X-X-X-X-X-X-O-------||----X-X-X-X-X-X-X-O-O-X-X-O-O-X-X---||
S|--X-------------------------------||:--X-------------------------------:||
T|----------------------------------||:----------------------------------:||
F|--X-------X-------X-------X-------||---X-------X-------X-------X--------||

      q       e   e   e   e   e   e       e   e   e   e   e   e   e   e
H|----X-------H---H---H---H---H---H---|---H---H---H---H---X-------C-------|
S|--------------------X---------------|-------------------X-------X-------|
T|------------------------------------|-----------------------------------|
F|----X-----------X---------------X---|---X-----------X-------X-------X---|

     q       e   e   e   e   e   e       e   e   e   e   e   e   e   e
H||--H-------H---H---H---H---H---H---|---H---H---H---H---H-------H-------||
S||:-----------------X---------------|-------------------X-------X------:||
T||:---------------------------------|----------------------------------:||
F||--X-----------X---------------X---|---X-----------X-------X-------X---||

     e   e   e   e   e   e   q           e   e   e   e   q       e   e
H|---H---H---H---H-----------C-------|---H---H---H---H---H-------C-------|
S|------------------xX---------------|-------------------X-------X-------|
T|-----------------------------------|-----------------------------------|
F|---X-----------X-------X---X-------|-------X---X-------------------X---|

     e   e   e   e   e   e   e   e       e   e   e   e   E     s e   e
H|---H---H---H---H---H---H---H---H---|---H---H---H---H---C---------------|
S|-------------------X---------------|-------------------X-----X-X---X---|
T|-----------------------------------|-----------------------------------|
F|---X-----------X-------X---X-------|-------X---X-----------------------|


      q       e   e   e   e   e   e       e   e   e   e   e   e   e   e
H||---C-------R---R---R---R---R---R---|---R---R---R---R---R---R---R---R---|
S||:----------X---------------X-------|-----------X---------------X-------|
T||:----------------------------------|-----------------------------------|
F||---X-------------------X-------X---|---X-------------------X-------X---|

     q       e   e   e   e   e   e       e   e   e   e   e   e   e   e
H|---C-------R---R---R---R---R---R---|---R---R---R---R---R---R---R---R---|
S|-----------X---------------X-------|-----------X---------------X-------|
T|-----------------------------------|-----------------------------------|
F|---X-------------------X-------X---|---X-------------------X-------X---|

     q       e   e   e   e   e   e       e   e   e   e   e   e   e   e
H|---C-------R---R---R---R---R---R---|---R---R---R---R---R---R---R---R---|
S|-----------X---------------X-------|-----------X---------------X-------|
T|-----------------------------------|-----------------------------------|
F|---X-------------------X-------X---|---X-------------------X-------X---|

 _______________________________________________________________________
 | 1.
 |   e   e   e   e   e   e   e   e       e   e   e   e   s s s s s s s s
H|---R---R---R---R---R---R---R---R---|------------------------------------||
S|-----------X---------------X-------|-----------X-----------------------:||
T|-----------------------------------|-------------------5-5-5-5-6-6-7-7-:||
F|---X-----------X-------X-----------|---X-----------X--------------------||
 _____________________________________________________________
 | 2.
 |   e   e   e   e   e   e   e   e       e   e   e   e   e   e   e   e
H|---C---------------C---------------|---C---------------C---------------|
S|---X---------------X---------------|---X---------------X---------------|
T|-------X---X---X-------X---X---X---|-------X---X---X-------X---X---X---|
F|---X---X---X---X---X---X---X---X---|---X---X---X---X---X---X---X---X---|

     q+      q       q       q           q+      q       h
H|---C---------------r-------C-------|---C---------------r---------------|
S|---X---------------e---------------|-------------------e---------------|
T|-------------------s---------------|-------------------s---------------|
F|---X---------------t-------X-------|---X---------------t---------------|

     q+      q       e   e   q           q+      q       h
H|---C---------------r---C---C-------|---C---------------r---------------|
S|-------------------e---------------|-------------------e---------------|
T|-------------------s---------------|-------------------s---------------|
F|---X---------------t---X---X-------|---X---------------t---------------|

     q+      q       q       q           e   e+  q       h
H|---C---------------r-------C-------|---C---C-----------r---------------|
S|-------------------e---------------|-------------------e---------------|
T|-------------------s---------------|-------------------s---------------|
F|---X---------------t-------X-------|---X---X-----------t---------------|

Play 5 times
      e   e   e   e   e   e   e   e       q       s s s s s s s s q
H||-------X-------X-------X-------X---|---X-------X-X-X-X-X-X-X-O-O-------||
S||:--X-------------------------------|---X------------------------------:||
T||:----------------------------------|----------------------------------:||
F||---X-------X-------X-------X-------|---X-------X-------X-------X-------||

      q       e   e   e   e   e   e       e   e   e   e   e   e   e   e
H||---C-------H---H---H---H---H---X---|---H---H---H---H---C-------C-------|
S||:------------------X---------------|-------------------X-------X-------|
T||:----------------------------------|-----------------------------------|
F||---X-----------X---------------X---|---X-----------X-------X-------X---|

 ________________________________________________________________________
 | 1.
 |   e   e   e   e   e   e   e   e       e   e   e   e   e   e   e   e
H|---X---X---X---X---X---X---X---X---|---X---X---X---H---C-------C-------||
S|-------------------X---------------|-------------------X-------X------:||
T|-----------------------------------|----------------------------------:||
F|---X-----------X---------------X---|---X-----------X-------X-------X---||

 ____________________________________________________________________
 | 2.
 |   e   e   e   e   e   e   q+          e   e   q       q       e   e
H|---------------C-----------C-------|-------H---H-------C-------C-------|
S|---X---X---X---X---X---X---X-------|-------------------X-------X-------|
T|-----------------------------------|-----------------------------------|
F|---X---X---X---X---X---X---X-------|-------X---X-------------------X---|

                                                              3
     e   e   e   e   e   e   q+          e   e   q       q^^^^q^^^^q
H|---H---H---H---H---H---H---C-------|-------H---H-------H----H----H----|
S|-------------------X---------------|-------------------X----X----X----|
T|-----------------------------------|----------------------------------|
F|---X-----------X-------X---X-------|-------X---X----------------------|

     q       e   e   e   e   e   e       e   e   e   e   e   e   e   e
H|---C-------R---R---R---R---R---R---|---R---R---R---R---R---R---R---R---|
S|-----------X---------------X-------|-----------X---------------X-------|
T|-----------------------------------|-----------------------------------|
F|---X-------------------X-------X---|---X-------------------X-------X---|

      q       e   e   e   e   e   e       e   e   e   e   e   e   e   e
H||---C-------R---R---R---R---R---R---|---R---R---R---R---R---R---R---R---|
S||:----------X---------------X-------|-----------X---------------X-------|
T||:----------------------------------|-----------------------------------|
F||---X-------------------X-------X---|---X-------------------X-------X---|

     q       e   e   e   e   e   e       e   e   e   e   e   e   e   e
H|---C-------R---R---R---R---R---R---|---R---R---R---R---R---R---R---R---|
S|-----------X---------------X-------|-----------X---------------X-------|
T|-----------------------------------|-----------------------------------|
F|---X-------------------X-------X---|---X-------------------X-------X---|
 ______________________________________________________________________
 | 1.
 |   e   e   e   e   e   e   e   e       q       e   e   E    E    E
H|---R---R---R---R---R---R---R---R---|---C-------R---R------------------||
S|-----------X---------------X-------|-----------X---------------------:||
T|-----------------------------------|------------------x6---x7---xX---:||
F|---X-----------X-------X-------X---|---X-----------X------------------||
 ______________________________________________________________________
 | 2.
 |   e   e   e   e   e   e   e   e       e   e   e   e   e   e   e   e
H|---C---------------C---------------|---C---------------C---------------|
S|---X---------------X---------------|---X---------------X---------------|
T|-------X---X---X-------X---X---X---|-------X---X---X-------X---X---X---|
F|---X---X---X---X---X---X---X---X---|---X---X---X---X---X---X---X---X---|

     q       e   e   e   e   e       e   e   e   e   e   e   e
H|---C-------X---X---X---X---X---|---X---X---X---X---X---X---X---|
S|7:-X-------------------X-------|-----------X-----------X-------|
T|8:-----------------------------|-------------------------------|
F|-----------X---X---------------|---X---------------X-----------|

     e   e   e   e   e   e   e       e   e   e   e   e   q
H|---X---X---H---H---X---X---X---|---X---X---X---X---X---C-------|
S|-------X---X-------------------|---X-----------X-------X-------|
T|-------------------------------|-------------------------------|
F|---X-------------------X-------|-----------X-------X-----------|

     e   e   e   e   e   e   e       e   e   e   e   e   e   e
H|---X---X---X---X---X---X---X---|---X---X---X---X---X---X---X---|
S|-----------X---X---------------|-----------X-----------X-------|
T|-------------------------------|-------------------------------|
F|---X-------------------X-------|---X---------------X-----------|

     e   e   e   e   e   e   e       e   e   e   e   e   e   s s
H|---X---X---X---X---X---X---X---|---X---X---H---H---H---C-------|
S|-----------------------X-------|-----------X-----------X--(X)X-|
T|-------------------------------|-------------------------------|
F|---X---X---X---X---------------|---X---------------X-------X---|

     q       e   e   e   e   e       e   e   e   e   e   e   e
H|---C-------X---X---X---X---X---|---X---X-------H---H---X---X---|
S|-----------------------X-------|-----------X-----------X-------|
T|-------------------------------|-------------------------------|
F|---X-------X---X---------------|---X---------------X-------X---|

     q       e   e   e   e   e       e   e   e   e   e   e   e
H|---C-------X---X---X---X---X---|---X---X---X---H---H---H---H---|
S|-----------X---X---------------|-----------X-----------X-------|
T|-------------------------------|-------------------------------|
F|---X-------------------X-------|---X---------------X-------X---|

     e   e   e   e   e   e   e       e   e   e   e   e   e   s s
H|---X---X---X---X---X---X---X---|---X---X---X---X---X---X-------|
S|-----------------------X-------|-----------X-----------X--(X)X-|
T|-------------------------------|-------------------------------|
F|---X-------X---X---------------|---X---------------X-------X---|

     e   e   e   e   e   e   e       e   e   e   e   e   e   e
H|---C-------X---X---X---X---X---|---X---X---X---X---X---X---X---|
S|-----------------------X-------|-----------X-----------X-------|
T|-------------------------------|-------------------------------|
F|---X---X---X---X---------------|---X---------------X-------X---|

     q       e   e   e   e   e       e   e   e   e   e   e   e
H|---C-------H---H---H---O-------|---O-------X---X---X---X---X---|
S|-----------X---X---------------|-----------X-----------X-------|
T|-------------------------------|-------------------------------|
F|---X-------------------X---P---|---X---P-----------X-------X---|

     E    s e   e   e   e   e       q       e   e   s s e   e
H|---O----------O-------O-------|---O---------------------------|
S|--------X-X-------------------|-----------X---X---X-X-X---X---|
T|------------------------------|-------------------------------|
F|---X----------X---P---X---P---|---X---------------------------|

     q       e   e   e   e   e       e   e   e   e   e   e   e
H|---C-------R---R---R---R---R---|---R---R---R---R---R---R---R---|
S|-----------------------X-------|-----------X-----------X-------|
T|-------------------------------|-------------------------------|
F|---X-------X---X---------------|---X---------------X-----------|

     e   e   e   e   e   e   e       e   e   e   e   e   e   e
H|---R---R---R---R---R---R---R---|---R---R---R---R---R---C-------|
S|-------------------X-----------|-----------X-----------X-------|
T|-------------------------------|-------------------------------|
F|---X-------X---X---------------|---X---------------X-------X---|


      q       e   e   e   e   e   |   e   e   e   e   e   e   e
H||---C-------R---R---R---R---R---|---R---R---R---R---R---R---R---|
S||:----------------------X-------|-----------X-----------X-------|
T||:------------------------------|-------------------------------|
F||---X-------X---X---------------|---X---------------X-------X---|
                                  ________________________________
                                  | 1.
     e   e   e   e   e   e   e    |   e   e   e   e   s s e   s s
H|---R---R---R---R---R---R---R----|---R---R-------O-------C--------||
S|-----------------------X--------|-----------X-------X-X-----X-X-:||
T|--------------------------------|-------------------------------;||
F|---X-------X---X----------------|---X-----------X-------X--------||
 ______________________________   _______________________________
 | 2.                             | 3.
 |   e   e   e   e   e   e   e	|   s s e   e   e   s s e   e
H|---R---R---R---R---R---C---C----|-------------------------------|
S|-----------X-----------X---X----|---X-X-X---X---X---X-X-X---X---|
T|--------------------------------|-------------------------------|
F|---X---------------X------------|-------------------------------|

     q       e   e   e   s s e       e   s s e   e   e   e   e
H|---C-------R---R---R---R---R---|---R---R---R---R---R---R---R---|
S|-----------X-------------X-----|-----------X---------------X---|
T|-------------------------------|-------------------------------|
F|---X---------------X-----------|---X-----X---------X-----------|

     e   e   e   e   e   s s e       e   s s e   s s q       s s
H|---R---R---R---R---R---R---R---|---R---R---R---R---C-----------|
S|-----------X-------------X-----|-----------X-------X-------X-X-|
T|-------------------------------|-------------------------------|
F|---X---------------X-----------|---X-----X-------X---------X---|

     q       e   e   e   s s e       e   e   e   e   e   s s e
H|---C-------R---R---R---R---R---|---R---R---R---R---R---R-O-R---|
S|-----------X-------------X-----|-----------X-------X-----------|
T|-------------------------------|-------------------------------|
F|---X---------------X-----------|---X-----------------------P---|

     e   e   e   e   e   s s e       e   s s e   e   s s e   e
H|---R---R---R---R---R---R-O-R---|---R---R-O-R---R---R-O-R---R---|
S|-----------X-------X-----------|---X-----------X-----------X---|
T|-------------------------------|-------------------------------|
F|---X-----------------------P---|-----------P-----------P-------|

     q       e   e   e   s s e       e   s s e   s s e   s s e
H|---C-------R---R---R---R---R---|---R---R---R---R---R---R---R---|
S|-----------X-------------X-----|-----------X-------X-----X-----|
T|-------------------------------|-------------------------------|
F|---X---------------X-----------|---X-----X-------X---------X---|

     e   s s e   e   e   s s e       e   s s e   e   s s e   s s
H|---R---R---R---R---R---R---R---|---R---R---R---R-------C-------|
S|-----------X-------------X-----|-----------X-------X-X-----X-X-|
T|-------------------------------|-------------------------------|
F|---X-----X-----X---X-----------|---X-----X-----X---X---X---X---|

                                                           3
     q       e   e   e   s s e       e   e   e   e   e   s^s^s e
H|---C-------R---R---R---R---R---|---R---R---R---R---R---R---------|
S|-----------X-------------X-----|-----------X-------X-----5-------|
T|-------------------------------|---------------------------X-----|
F|---X---------------X-----------|---X-------------------------X---|

     q       e   e   s s s e   e       E    s s s s s s s s s s s
H|---C-------------------------C---|---C--------------------------|
S|---------------------------------|--------X---X-X-X-------------|
T|-----------6---7---X-7-X---------|----------6-------5-5-6-6-7-7-|
F|---X---------------------X---X---|---X--------------------------|

     q       e   e   e e s s e       e   s s e   e   s s s s e
H|---C-------R---R---R---R---R---|---R---R---R---R---R---R---R---|
S|-----------X-------------X-----|-----------X-------X-----X-----|
T|-------------------------------|-------------------------------|
F|---X---------------X-----------|---X-----X-----------X-----X---|

     e   s s e   e   e   s s e       s s s s s s s s e   s s e
H|---R---R---R---R---R---R---R---|---R-O---O---------C---C---C---|
S|-----------X-------------X-----|-------X---X-X-X-X-------X-----|
T|-------------------------------|-------------------------------|
F|---X-----X-----X---X-----------|-------P---P-------X---X---X---|

     q       e   e   e   s s e       e   e   e   e   e   s s e
H|---C-------R---R---R---R---R---|---R---R---R---R---R---R---R---|
S|-----------X-------------X-----|-----------X-------X-----X-----|
T|-------------------------------|-------------------------------|
F|---X---------------X-----------|---X-----------X---X---X---X---|

     e   e   e   e   e   e   e       e   e   e   e   e   e   e
H|---C-------R---R---R---R---R---|---R---R---C---C---C---C---C---|
S|---X---------------------------|-------------------------------|
T|-------------------------------|-------------------------------|
F|---X---X---X---X---X---X---X---|---X---X---X---X---X---X---X---|

     q+      q       q+      e       q       q       q       e
H|---C---------------C-----------|-------------------------------|
S|-------------------X-----------|-------------------X-----------|
T|-------------------------------|-------------------------------|
F|---X---------------------------|---X-----------------------P---|

     q       q       q       e       q       q       q       e
H|---------------------------r---|-------------------------------|
S|-------------------X-------e---|-------------------X-----------|
T|---------------------------s---|-------------------------------|
F|---X-------X---------------t---|---X-----------------------X---|

     q       q       q       e       q       q       q       e
H|-------------------------------|-------------------------------|
S|-------------------X-----------|-------------------X-----------|
T|-------------------------------|-------------------------------|
F|---X-----------------------P---|---X-----------------------X---|

     q       q       q       e       q       q       e   e   e
H|-------------------------------|-------------------------------|
S|-------------------X-----------|-------------------X-----------|
T|-------------------------------|-------------------------------|
F|---X------X----------------P---|---X-------------------X---X---|

     q+      q       q       e       q+      q       e   e   e
H|---C---------------------------|---R---------------R---R---R---|
S|-------------------X-----------|-------------------X-----------|
T|-------------------------------|-------------------------------|
F|---X-----------------------X---|---X-------------------X---X---|

     e   e   e   e   e   e   e       e   e   e   e   e   e   e
H|---R---R---R---R---R---R---R---|---R---R---R---R---R---R---R---|
S|---X---------------X-----------|---X---------------------------|
T|-------------------------------|-------------------------------|
F|---X---X---X---X---X---X---X---|---X---X---X---X---X---X---X---|

     e   e   e   e   e   e   e       e   e   e   e   e   e   e
H|---R---R---R---R---R---R---R---|---R---R---R---R---R---R---R---|
S|---X---------------------------|---X---X---X---X---X---X---X---|
T|-------------------------------|-------------------------------|
F|---X---X---X---X---X---X---X---|---X---X---X---X---X---X---X---|

     e   e   e   e   e   e   e       e   e   e   e   s s s s s s
H|---R---R---R---R---R---R---R---|---R---R---R---R---------------|
S|---X---X---X---X---X---X---X---|---X---X---X---X---X-X-X-X-X-X-|
T|-------------------------------|-------------------------------|
F|---X---X---X---X---X---X---X---|---X---X---X---X---X---X---X---|

     q       e   q       e   e       e   e   e   e   e   q
H|---C-----------T-------R---R---|---C-----------C-------C-------|
S|-------------------------------|---X-----------X-------X-------|
T|-------------------------------|-------------------------------|
F|---X-------X---X-------X-------|-------X---X-------X-----------|

     q       e   q       q           e   e   e   e   e   q
H|---C-------T---T-------T-------|---C-----------C-------R-------|
S|-----------X---X-------X-------|---X-----------X-------X-------|
T|-------------------------------|-------------------------------|
F|---X---------------------------|-------X---X-------X-----------|

     E    s e   q       q           q       e   q       q
H|---R----------c-------c-------|---c-----------C-------R-------|
S|---X----X-X-------------------|---------------X---------------|
T|------------------------------|-------------------------------|
F|--------------X-------X-------|---X-------X-----------X-------|

     e   e   e   e   e   e   e       e   e   s s e   s s e   s s
H|---R---R---R---R---R---R---R---|---R---R-----------------------|
S|---X-------X-------X-------X---|-------X---X-X-X---X-X-X---X-X-|
T|-------------------------------|-------------------------------|
F|-------X-------X-------X-------|---X-----------X-------X-------|

     q       e   e   e   e   e   e       e   e   e   e   e   e   e   e
H|---C-------R---R---R---R---R---R---|---R---R---R---R---R---R---R---R---|
S|4:---------X---------------X-------|-----------X---------------X-------|
T|4:---------------------------------|-----------------------------------|
F|---X-------------------X-------X---|---X-------------------X-------X---|

      q       e   e   e   e   e   e       e   e   e   e   e   e   e   e
H||---R-------R---R---R---R---R---R---|---R---R---R---R---R---R---R---R----||
S||:----------X---------------X-------|-----------X---------------X-------:||
T||:----------------------------------|-----------------------------------:||
F||---X-------------------X-------X---|---X-------------------X-------X----||

     q       e   q       e   s s e       q       e   e   s s s s s s s s
H|---C-----------C-------------------|---C-----------C-------------------|
S|-----------X-----------------------|-----------X-----------------------|
T|---------------------------6-6-6---|-------------------4-4-5-5-6-6-7-7-|
F|---X-----------X-------X-----------|---X-----------X-------------------|

     q       e   e   e   e   e   e       e   e   e   e   e   e   e   e
H|---C-------R---R---R---R---R---R---|---R---R---R---R---R---R---R---R--|-----|
S|-----------X---------------X-------|-----------X---------------X------|--%--|
T|-----------------------------------|----------------------------------|-----|
F|---X-------------------X-------X---|---X-------------------X-------X--|-----|

     e   e   e   e   e   e   s e   s     q       e   e   e   e   e   e
H|---R---R---R---R---R---R-----C-----|---C-------R---R---R---R---R---R---|
S|-----------X---------------X-----X-|-----------X---------------X-------|
T|-----------------------------------|-----------------------------------|
F|---X-------------------X-----X-----|---X-------------------X-------X---|

     q       e   e   e   e   e   e       q       e   e   e   e   e   e
H|---R-------R---R---R---R---R---R---|---C-------R---R---R---R---R---R---|
S|-----------X---------------X-------|-----------X---------------X-------|
T|-----------------------------------|-----------------------------------|
F|---X-------------------X-------X---|---X-------------------X-------X---|

(Separate rythms)
     q       q       q       q           q       e   e   e   e   e   e
H|---R-------R-------R-------R-------|---C-------R---R---R---R---R---R---|
S|---X----X----X----X----X----X------|-----------X---------------X-------|
T|-----------------------------------|-----------------------------------|
F|---X-------------------------------|---X-------------------X-------X---|
     q^^^^q^^^^q^^^^q^^^^q^^^^q
                 \6/

      e   e   e   e   e   e   e   e        e   e   e   e   e   e   s e   s
H||---R---R---R---R---R---R---R---R---||---R---R---R---R---R---R-----C-----|
S||:----------X---------------X------:||-----------X---------------X-----X-|
T||:---------------------------------:||-----------------------------------|
F||---X-------------------X-------X---||---X-------------------X-----X-----|

      e   e   e   e   e   e   e   e        q       e   q       e   q
H||---R---R---R---R---R---R---R---R---||---C-----------C-----------R-------|
S||:----------X---------------X------:||-----------X---------------X-------|
T||:---------------------------------:||-----------------------------------|
F||---X-------------------X-------X---||---X-----------X-------X-----------|

           3      3        3        3
     e   s^s^s e^^e^^e  e^^e^^e  e^^e^^e
H|---C-------------------------------------|
S|-------X-X-X-----------------------------|
T|-------------5--5--5--6--6--6--6--7--7---|
F|---X-------------------------------------|

Play 3 times
      q       e   e   e   e   e   e       e   e   e   e   e   e   e   e
H||---C-------R---R---R---R---R---R---|---R---R---R---R---R---R---R---R----||
S||:----------X---------------X-------|-----------X---------------X-------:||
T||:----------------------------------|-----------------------------------:||
F||---X-------------------X-------X---|---X-------------------X-------X----||

                                               3
     q       e   e   e   s s s s s s     q^^^^^q^^^^^q     s s s s s e
H|---C-----------C-----------O---O---|---O-------------------------------|
S|-----------X-------X---X-X---------|---------X-----------X-X-X-X-X-----|
T|-----------------------------------|-----------------------------------|
F|---X-----------X-----------X-P---P-|---X-----------X---------------X---|

     q       e   e   e   e   e   e       e   e   e   e   e   e   e   e
H|---C-------R---R---R---R---R---R---|---R---R---R---R---R---R---C-------|
S|-----------X---------------X-------|-----------X---------------X-------|
T|-----------------------------------|-----------------------------------|
F|---X-------------------X-------X---|---X-------------------X-------X---|

     q       e   e   e   e   e   e       e   e   e   e   s s s s s E
H|---C-------R---R---R---R---R---R---|---R---R---R---R-------------C-----|
S|-----------X---------------X-------|-----------X-------X-X-X-X-X-------|
T|-----------------------------------|-----------------------------------|
F|---X-------------------X-------X---|---X-------------------------X-----|

     q       e   e   e   e   e   e       e   e   e   e   e   e   e   e
H|---C-------R---R---R---R---R---R---|---R---R---R---R---R---R---R---R---|
S|-----------X---------------X-------|-----------X---------------X-------|
T|-----------------------------------|-----------------------------------|
F|---X-------------------X-------X---|----X------------------X-------X---|

     q       e   e   e   e   e   e      e  e  e  e  e  e  e   s s s e  e  e
H|---C-----------R---R---R---R-------|---------------------------------------|
S|-----------X---------------X-------|---------------------------------------|
T|-----------------------------------|-x4--4--4--5--5--5--5---6-6-6-6--7--7--|
F|---X-----------X-------X-------X---|---------------------------------------|

     q       e   e   e   e   e   e       e   e   e   e   e   e   e   e
H|---C-------R---R---R---R---R---R---|---R---R---R---R---R---R---C-------|
S|-----------X---------------X-------|-----------X-----------------------|
T|-----------------------------------|-----------------------------------|
F|---X-------------------X-------X---|---X-------------------X-------X---|

     q       e   e   e   e   e   e       e   e   e   e   e   e   e   e
H|---C-------R---R---R---R---R---R---|---C-----------C-----------C-------|
S|-----------X---------------X-------|---X-----------X-----------X-------|
T|-----------------------------------|-----------------------------------|
F|---X-------------------X-------X---|---X---X---X---X---X---X---X---X---|

     q       e   e   e   e   e   e       e   e   e   e   e   e   e   e
H|---C-------R---R---R---R---R---R---|---R---R---R---R---R---R---R---R---|
S|-----------X---------------X-------|-----------X---------------X-------|
T|-----------------------------------|-----------------------------------|
F|---X-------------------X-------X---|---X-------------------X-------X---|

      q       e   e   q       e   e       q       e   e   q       e   e
H||---C-------R---R---C-------R---R---|---C-------R---R---C-------R---R---||
S||:------------------X---------------|-------------------X--------------:||
T||:----------------------------------|----------------------------------:||
F||---X-----------X---------------X---|---X------------X--------------X---||


KEY:

 Hi-hats & Cymbals  -O-X-H--C-R-B-S-T-c-
             Snare  -X-S-R-F------------
               Tom  -1-2-3-4-5-6-7-X----
       Foot Pedals  -X-P----------------


Hi-hats & Cymbal line:

Hi-hats  O - OPEN HH
         X - CLOSED HH
         P - PEDAL HH
         H - HALF OPEN HH
Cymbals  C - CRASH
         c - CRASH CHOKE
         R - RIDE
         B - RIDE BELL
         S - SPLASH
         T - CHINA (AKA TRASH)

Snare line:
     X - SINGLE HIT
     R - RIMSHOT
     F - FLAM (Hit with both sticks, one slightly before the other)
     S - SIDE STICK
     x - GRACE NOTE (hit snare slightly and right before the prime note)

Tom line:
        Notated by number. 1 being the highest sounding to the lowest tom.
        (The numbers depend on how many toms Neil is using in any given
        song, it's up to you to fit them into your drumset.)
        X - Floor tom
 NOTE - Originally this key had two tom lines, but I decided to use
        just one to keep it simpler.
        A second tom line will be added to the bar ONLY if two toms are
        played at once.
 Foot Pedal line:
        X - KICK DRUM
        P - Hi-hat pedal
        When the right and left kick drums are being used together they will
        be notated with a right (R) or a left (L)

Rhythm:
w whole note                    W dotted whole note
h half note                     H dotted half note
q quarter note                  Q dotted quarter note
e eighth note                   E dotted eighth note
s sixteenth note                S dotted sixteenth note
t thirty-second note            T dotted thirty-second note

% - Repeat last measure

Fermata - Hold the note at pleasure

> - Accent: When a note is given special emphasis

||----||
||o--o||  Repeat
||o--o||  Signs
||----||

As a general rule, the rhythm shown above the staff will be the composite
rhythm for all the drums, as this is the only way to notate this, short
of assigning each line on the staff it's own rhythm :P.

            
            
Suggest correction
Creating personal tab
Creating personal tab
You can edit any tab online and save it as your Personal.

You can edit, replace or remove any tab part or add personal notes – all changes will be seen only by you.

Personal tabs can be accessed anytime from any device, even offline.
Learn more »
Give kudos to tab author, rate the tab!
1 2 3 4 5
comments
print report bad tab
guest
You may want to rate the tab now too:
select rating
Wanna post a correction for this tab? Suggest correction