Oops, an error
Loading. Please wait.
We have an official Red Barchetta tab made by UG professional guitarists. Check out the tab »
×
by Rush
24,444 views 18 this week
no commentswrite comment
1 2 3 4 5
x 6
add to favorites
×
Save as Personal and add changes to this tab that will be seen only by you. Learn more ›
×
You can save this tab as Personal to edit and correct it or add notes. All changes will be seen only by you. Learn more »
launch autoscroll
font size
0
reset
how to read this tab
guitar tuner
backing track
0:00
0:00
edit
Autoscroll
slow
fast
+/-
esc
set tempo
stop
Author
  Repeat 5 times, clean w/chorus      Repeat 4 times
  q   q   q   q     q   e Q     q     q   q   q   q     q   e Q     q
|-----------------|-----------------|-----------------|-----------------|
|-----------------|-----------------|-----------------|------------<7>--|
4o12>-------------|<12>------------o|o-------<5>------|------<5>-------o|
4o-------<7>------|------<7>-------o|o---<5>-----<7>--|----<5>---------o|
|----<7>-----<12>-|----<7>-----<12>-|<4>--------------|<4>--------------|
|-----------------|-----------------|-----------------|-----------------|

  As4                                 As4/F#
  w e e q   e e e   e e e q   e e e   w e e q   e e e   e e e q   e e e
|-----------------|-----------------|-----------------|-----------------|
|-------3---------|-2-----3---2-----|-------3---------|-2-----3---2-----|
|o----2-----2---2-|---2-----------2-|-----2-----2---2-|---2-----------2-|
|o--2---------2---|-----2-------2---|---2---------2---|-----2-------2---|
|-0---------------|-----------------|-----------------|-----------------|
|-----------------|-----------------|-2---------------|-----------------|

                                     ___________________________________
                                    | Ending 1 & 2                      |
  As4/G                             | As4                               |
  w e e q   e e e   e e e q   e e   | w e e q   e e e   e e e e e q   e |
|-----------------|-----------------|-----------------|-----------------|
|-------3---------|-2-----3---2-----|-------5---------|--p-----h--5-----|
|-----2-----2---2-|---2-------------|-----7-----7---7-|-7-6---6-7-----7o|
|---2---------2---|-----2-------2---|---7---------7---|-----7----------o|
|-----------------|-----------------|-----------------|-----------------|
|-3---------------|-----------------|-5---------------|-----------------|

 ___________________________________
| Ending 3                          | Overdriven w/chorus
| Ds2                               | F     F/E         F     F/E
| w e e q   e e e   q   e e e e e e | q   e q   q e e   q   e q   q e e
|-----------------|-----------------|-----1-------1---|-----1-------1---|
|-------5---------|--------h--5\----|-----1-------1---|-----1-------1---|
|-----7-----7---7-|-6-----6-7------o|o----2-------2---|-----2-------2---|
|---7---------7---|-----7----------o|o----------------|-----------------|
|-5---------------|-------------3-2-|-----------------|-----------------|
|-----------------|-----------------|-1-----0---0---0-|-1-----0---0---0-|

 ___________________________________ ___________________________________
| Ending 1                          | Ending 2                          |
| F     F/E         F G             | F     F/E         F G             |
| q   e q   q e e   e e e e q   e e | q   e q   q e e   e q   e q   q   |
|-----1-------1---|-----3---3-------|-----1-------1---|-----------------|
|-----1-------1---|-----3---3-------|-----1-------1---|-----------------|
|-----2-------2---|-----4---4------o|-----2-------2---|-----------------|
|-----------------|-3/5-5-5-5------o|-----3-------3---|-3/5---5-5-------|
|-----------------|-3/5---5-5---3-2-|-----------------|-3/5---5-5---(1)-|
|-1-----0---0---0-|-1/3---3-3-------|-1-----0---0---0-|-1/3---3-3---3^--|

                                     ___________________________________
  Repeat 3 times.                   | Ending 1 & 2                      |
  A   G   D   G     A   G A     G   | A   G   D   G     G A   As4       |
  q   q   q   q     q   e q   e q   | q   q   q   q     e e e e e   q   |
|-----------------|-----------------|-----------------|-7/9-9-109-\-----|
|-----------------|-----------------|-----------------|-8/10101010\-----|
|o--------2-------|-------2---2-----|---------2-------|-7/9-9-9-8-\----o|
|o2-------0-------|-2-----0---0-----|-2-------0-------|----------------o|
|-0-----------(1)-|-0-----------(1)-|-0---------------|-------------(1)-|
|-----3-------3^--|-----3-------3^--|-----3-------3---|-------------3^--|

 ___________________________________
| Ending 3                          | Down in his barn...
| A   G   D   G     G A   As4       | F     Cs4   C     F     Cs4   C
| q   q   q   q     e e e e e       | Q     Q     q     Q     Q     q
|-----------------|-7/9-9-109-\-----|-----------------|-----------------|
|-----------------|-8/10101010\-----|-1-----1-----1---|-1-----1-----1---|
|---------2-------|-7/9-9-9-8-\----o|-2-----0-----0---|-2-----0-----0---|
|-2-------0-------|----------------o|-3-----3-----2---|-3-----3-----2---|
|-0---------------|-----------------|-3-----3-----3---|-3-----3-----3---|
|-----3-------3---|-----------------|-----------------|-----------------|

  F     Cs4   C     F G               F     Cs4   C     F     Cs4   C
  Q     Q     Q     e e q   h         Q     Q     Q     Q     Q     Q
|-----------------|-1-3-3---3-------|-----------------|-----------------|
|-1-----1-----1---|-1-3-3---3-------|-1-----1-----1---|-1-----1-----1---|
|-2-----0-----0---|-2-4-4---4-------|-2-----0-----0---|-2-----0-----0---|
|-3-----3-----2---|-3-5-5---5-------|-3-----3-----2---|-3-----3-----2---|
|-3-----3-----3---|-3-5-5---5-------|-3-----3-----3---|-3-----3-----3---|
|-----------------|-1-3-3---3-------|-----------------|-----------------|

  dear- est     dream...
  Q     Q       w
|-------------|-----------------|-----------------|G|
|-1-----1-----|-1---------------|-----------------|T|
3-2-----0-----4-0---------------|-----------------|R|
4-3-----3-----4-2---------------|-----------------|1|
|-3-----3-----|-3---------------|-----------------| |
|-------------|-----------------|-----------------| |
                q   q   q   q     q   e Q     Q     |
|-------------|-----------------|-----------------|G|
|-------------|-----------------|-----------------|T|
3-------------|<12>-------------|<12>-------------|R|
4-------------|--------<7>------|------<7>--------|2|
|-------------|----<7>-----<12>-|----<7>-----<12>-| |
|-------------|-----------------|-----------------| |

  Slightly overdriven tone w/chorus
  I slip away the old debris...
  As4                                 As4/F#
  w e e q   e e e   e e e q   e e e   w e e q   e e e   e e e q   e e e
|-----------------|-----------------|-----------------|-----------------|
|-------3---------|-2-----3---2-----|-------3---------|-2-----3---2-----|
|o----2-----2---2-|---2-----------2-|-----2-----2---2-|---2-----------2-|
|o--2---------2---|-----2-------2---|---2---------2---|-----2-------2---|
|-0---------------|-----------------|-----------------|-----------------|
|-----------------|-----------------|-2---------------|-----------------|

                                     ___________________________________
                                    | Ending 1                          |
  As4/G                             | As4                               |
  w e e q   e e e   e e e q   e e   | w e e q   e e e   e e e e e Q     |
|-----------------|-----------------|-----------------|-----------------|
|-------3---------|-2-----3---2-----|-------5---------|--p-----h--5\----|
|-----2-----2---2-|---2-------------|-----7-----7---7-|-7-6---6-7------o|
|---2---------2---|-----2-------2/--|---7---------7---|-----7----------o|
|-----------------|-----------------|-----------------|-----------------|
|-3---------------|-----------------|-5---------------|-----------------|

 ___________________________________
| Ending 2                          |
| As4                               | A
| q   q   q   q     q   q   q   q   | ww
|-----5-------5---|-----5-------5---|-----------------|-----------------|
|-----5-------5---|-----5-------5---|-(dive w/vib arm)|-(up w/vib arm)--|
|-7---7---7---7---|-7---7---7---7--o|-2^--------------|--^--------------|
|-7-------7-------|-7-------7------o|-2^--------------|--^--------------|
|-----------------|-----------------|-0^--------------|--^--------------|
|-----------------|-----------------|-----------------|-----------------|

  G/D           A/D               G/D           G/D D     G/D A/D
  e e e e e e   e   e e e e e e   e   e e e e e e   e     e   e
|-7---------7---9-|-----------9---7-|---------7-9---10|---9---7-|
|-8---------8---10|-----------10--8-|---------8-10--10|---10--8-|
|-7---------7---9-|-----------9---7-|---------7-9---112---9---7-|
|-0-0-0-0-0-0---0-|-0-0-0-0-0-0---0-|-0-0-0-0-0-0---0-4---0---0-|
|-----------------|-----------------|-----------------|---------|
|-----------------|-----------------|-----------------|---------|

  G/D           A/D               G/D           G/D D     G/D A/D
  e e e e e e   e   e e e e e e   e   e e e e e e   e     e   e
|-----------7---9-|-----------9---7-|---------7-9---10|---9---7-|
|-----------8---10|-----------10--8-|---------8-10--10|---10--8-|
4-----------7---9-|-----------9---7-|---------7-9---112---9---7-|
4-0-0-0-0-0-0---0-|-0-0-0-0-0-0---0-|-0-0-0-0-0-0---0-4---0---0-|
|-----------------|-----------------|-----------------|---------|
|-----------------|-----------------|-----------------|---------|

                A/D               G/D             A/D     A/D G/D
  e e e e e e   e   e e e e e e   e   e e e e e e e e     e   e
|-----------7---9-|-----------9---7-|---------7-7-9-10|---9---7-|
|-----------8---10|-----------10--8-|---------8-8-1010|---10--8-|
4o----------7---9-|-----------9---7-|---------7-7-9-112---9---7o|
4o0-0-0-0-0-0---0-|-0-0-0-0-0-0---0-|-0-0-0-0-0-0-0-0-4---0---0o|
|-----------------|-----------------|-----------------|---------|
|-----------------|-----------------|-----------------|---------|

                A/D               G/D             A/D         G/D
  e e e e e e   e   e e e e e e   e   e e e e e e e h         he
|-----------7---9-|-----------9---7-|---------7-7-9-10|-------7---------|
|-----------8---10|-----------10--8-|---------8-8-1010|-------8---------|
4-----------7---9-|-----------9---7-|---------7-7-9-11|-------7---------|
4-0-0-0-0-0-0---0-|-0-0-0-0-0-0---0-|-0-0-0-0-0-0-0-0-|-------0---------|
|-----------------|-----------------|-----------------|-----------------|
|-----------------|-----------------|-----------------|-----------------|

  Bb    F           Bb    F           C#    G#          C#    G#
  Q     Q     q     Q     Q     q     Q     Q     q     Q     Q     q
|-1-----1-----1---|-1-----1-----1---|-4-----4-----4---|-4-----4-----4---|
|-3-----1-----1---|-3-----1-----1---|-6-----4-----4---|-6-----4-----4---|
|o3-----2-----2---|-3-----2-----2---|-6-----5-----5---|-6-----5-----5--o|
|o3-----3-----3---|-3-----3-----3---|-6-----6-----6---|-6-----6-----6--o|
|-1-----3---------|-1-----3---------|-4-----6---------|-4-----6---------|
|-------1---------|-------1---------|-------4---------|-------4---------|

  E     B           E     B           G     D           G
  Q     Q     q     Q     Q     q     Q     he          e e e e e e e e
|-7-----7-----7---|-7-----7-----7---|-10----10--------|-----------------|
|-9-----7-----7---|-9-----7-----7---|-12----10--------|-1212121212121212|
|-9-----8-----8---|-9-----8-----8---|-12----11--------|-1212121212121212|
|-9-----9-----9---|-9-----9-----9---|-12----12--------|-1212121212121212|
|-7-----9---------|-7-----9---------|-10----12--------|-1010101010101010|
|-------7---------|-------7---------|-------10--------|-----------------|

  Guitar solo (tab expanded for clarity)
  Heavily overdriven w/flanger ("tunnel" sound w/low "rate" setting)
                                  ---3--- ---3--- ---3---
  w                               e  e  e e  e  e e  e  e
|---------------------------------9--7--------------------|
|-0------------------------------------10-7\-5------------|
7-0---------------------------------------------6-6--4----|
4-0-----------------------------------------------------7-|
|---------------------------------------------------------|
|---------------------------------------------------------|

  Q           e   s S  S  S  S  S  S  S  S  S  S  e   e
|---------------------------------------------------------|
|---------------------------------------------------------|
|-------------------------------------------4--6--7---6---|
|----------------------------------4--6--7----------------|
|-0-----------------------4--5--6-------------------------|
|-----------------5-5--7----------------------------------|

  S  S  s h               e   e   e   e   h
|---------------------------------------------------------|
|----------------------------------------[7]~-------------|
|-7--6--7/9~--------------7---6---7---9-------------------|
|---------------------------------------------------------|
|---------------------------------------------------------|
|---------------------------------------------------------|

  s s s s e   e   e       Q             s s   e   e s s
|---------------------------------------------------------|
|[5]7-5--[5]---------------2-------------r-2---r-p--------|
|------[7]---[7]-[6]------7^-----------(7)7^-(7)--6-------|
|---------------------------------------------------7-----|
|-----------------------------------------------------7---|
|---------------------------------------------------------|

  q       e   h+e                 q       e   e   q
|---------------------------------------------------------|
|---------------------------------------------------------|
|---------6---9~--------------------------6---9---6-------|
|/7------------------------------/7-----------------------|
|---------------------------------------------------------|
|---------------------------------------------------------|

  Q           q       q       e   e   e   e   e   e   e
|---------------------------------------------------------|
|-7~----------7-------7-------7---7-------------------7---|
|-------------------------------------6---6-------6-------|
|---------------------------------------------7-----------|
|---------------------------------------------------------|
|---------------------------------------------------------|

  s E     e   q       s E     e   e   s E     e   e
|---------------------------------------------------------|
|-------------10------------------10--------------10------|
|---------7-------------------7---------------7-----------|
|-7/9-----------------7/9-------------7/9-----------------|
|---------------------------------------------------------|
|---------------------------------------------------------|

  flanger off at "*".                                       *
  s  E    e   q       e   e   e     e   e   e   e   e   e   e
|-------------10--------------10--|---------12--------------14\-----|
|---------10--------------10------|----h-----------h----------------|
4-9/11----------------11----------|-11--12------11--12-/14----------|
4---------------------------------|---------------------------------|
|---------------------------------|---------------------------------|
|---------------------------------|---------------------------------|

  Repeat 3 times
  A   G   D   G     A   G A       A   G   D   G     G A
  q   q   q   q     q   e q   e   q   q   q   q     e e e
|-----------------|-------------|-----------------|-7/9-9-\-|
|-----------------|-------------|-----------------|-8/1010\-|
4o--------2-------3-------2---2o4---------2-------2-7/9-9-\-|
4o2-------0-------4-2-----0---0o4-2-------0-------4---------|
|-0-----------(1)-|-0-----------|-0-----------(1)-|---------|
|-----3-------3^--|-----3-------|-----3-------3^--|---------|

  Slightly overdriven tone w/chorus.
  As4                                 As4/F#
  w e e q   e e e   e e e q   e e e   w e e q   e e e   e e e q   e e e
|-----------------|-----------------|-----------------|-----------------|
|-------3---------|-2-----3---2-----|-------3---------|-2-----3---2-----|
4o----2-----2---2-|---2-----------2-|-----2-----2---2-|---2-----------2-|
4o--2---------2---|-----2-------2---|---2---------2---|-----2-------2---|
|-0---------------|-----------------|-----------------|-----------------|
|-----------------|-----------------|-2---------------|-----------------|

                                     ___________________________________
                                    | Ending 1                          |
  As4/G                             | As4                               |
  w e e q   e e e   e e e q   e e e | w e e q   e e e   e e e e e Q     |
|-----------------|-----------------|-----------------|-----------------|
|-------3---------|-2-----3---2-----|-------5---------|--p-----h--5\----|
|-----2-----2---2-|---2-------------|-----7-----7---7-|-7-6---6-7------o|
|---2---------2---|-----2-------2---|---7---------7---|-----7----------o|
|-----------------|-----------------|-5---------------|-----------------|
|-3---------------|-----------------|-----------------|-----------------|

 ___________________________________
| Ending 2                          | Overdriven w/chorus
| As4                               | F     F/E         F     F/E
| q   q   q   q     q   q   q   e e | q   e q   q e e   q   e q   q e e
|-5---5---5---5---|-5---5---5\------|-----1-------1---|-----1-------1---|
|-5---5---5---5---|-5---5---5\------|-----1-------1---|-----1-------1---|
|-7---7---7---7---|-7---7---7\-----o|o----2-------2---|-----2-------2---|
|-7---7---7---7---|-7---7---7\-----o|o----------------|-----------------|
|-------------------------------3-2-|-----------------|-----------------|
|-----------------|-----------------|-1-----0---0---0-|-1-----0---0---0-|

 ___________________________________ ___________________________________
| Ending 1                          | Ending 2                          |
| F     F/E         F G             | F     F/E         F G             |
| q   e q   q e e   e e e e q   e e | q   e q   q e e   e Q     q   q   |
|-----1-------1---|-1-3-2---3-------|-----1-------1---|-1-3-----3-------|
|-----1-------1---|-1-3-3---3-------|-----1-------1---|-1-3-----3-------|
|-----2-------2---|-2-4-4---4------o|-----2-------2---|-2-4-----4------o|
|-----------------|-3-5---5-5------o|-----------------|-3-5-----5------o|
|-----------------|-3-5---5-5---3-2-|-----------------|-3-5-----5---(1)-|
|-1-----0---0---0-|-1-3---3-3-------|-1-----0---0---0-|-1-3-----3---3^--|

                                     ___________________________________
  Repeat 3 times.                   | Ending 1 & 2                      |
  A   G   D   G     A   G A     G   | A   G   D   G     G A   As4       |
  q   q   q   q     q   e q   e q   | q   q   q   q     e e e e e   q   |
|-----------------|-----------------|-----------------|-7/9-9-109-\-----|
|-----------------|-----------------|-----------------|-8/10101010\-----|
|o--------2-------|-------2---2-----|---------2-------|-7/9-9-9-8-\----o|
|o2-------0-------|-2-----0---0-----|-2-------0-------|----------------o|
|-0-----------(1)-|-0-----------(1)-|-0---------------|-------------(1)-|
|-----3-------3^--|-----3-------3^--|-----3-------3---|-------------3^--|

 ___________________________________
| Ending 3                          |
| A   G   D   G     G A   As4       | F     Cs4   C     F     Cs4   C
| q   q   q   q     e e e e e       | Q     Q     q     Q     Q     q
|-----------------|-7/9-9-109-\-----|-----------------|-----------------|
|-----------------|-8/10101010\-----|-1-----1-----1---|-1-----1-----1---|
|---------2-------|-7/9-9-9-8-\----o|-2-----0-----0---|-2-----0-----0---|
|-2-------0-------|----------------o|-3-----3-----2---|-3-----3-----2---|
|-0---------------|-----------------|-3-----3-----3---|-3-----3-----3---|
|-----3-------3---|-----------------|-----------------|-----------------|

  F     Cs4   C     F G               F     Cs4   C     F     Cs4   C
  Q     Q     Q     e e q   h         Q     Q     q     Q     Q     q
|-----------------|-1-3-3---3-------|-----------------|-----------------|
|-1-----1-----1---|-1-3-3---3-------|-1-----1-----1---|-1-----1-----1---|
|-2-----0-----0---|-2-4-4---4-------|-2-----0-----0---|-2-----0-----0---|
|-3-----3-----2---|-3-5-------------|-3-----3-----2---|-3-----3-----2---|
|-3-----3-----3---|-3-5-------------|-3-----3-----3---|-3-----3-----3---|
|-----------------|-1-3-------------|-----------------|-----------------|

  F     Cs4     C                 F     Cs4   C     F     Cs4   C
  Q     Q       w                 Q     Q     q     Q     Q     q
|-------------|-----------------|-----------------|-----------------|
|-1-----1-----|-1---------------|-1-----1-----1---|-1-----1-----1---|
3-2-----0-----4-0---------------|-2-----0-----0---|-2-----0-----0---|
4-3-----3-----4-2---------------|-3-----3-----2---|-3-----3-----2---|
|-3-----3-----|-3---------------|-3-----3-----3---|-3-----3-----3---|
|-------------|-----------------|-----------------|-----------------|

  F     Cs4     A
  Q     Q       ww
|-------------|-----------------|-----------------|G|
|-1-----1-----|-----------------|-----------------|T|
3-2-----0-----4-----------------|-----------------|R|
4-3-----3-----4-2---------------|-----------------|1|
|-3-----3-----|-0---------------|-----------------| |
|-------------|-----------------|-----------------| |
                q   q   q   q     q   e Q     Q     |
|-------------|-----------------|-----------------|G|
|-------------|-----------------|-----------------|T|
3-------------4<12>-------------|<12>-------------|R|
4-------------4--------<7>------|------<7>--------|2|
|-------------|----<7>-----<12>-|----<7>-----<12>-| |
|-------------|-----------------|-----------------| |

  Repeat 6 times, clean w/chorus      Repeat 4 times
  q   q   q   q     q   e Q     q     q   q   q   q     q   e Q     q
|-----------------|-----------------|-----------------|-----------------|
|-----------------|-----------------|-----------------|------------<7>--|
4o12>-------------|<12>------------o|o-------<5>------|------<5>-------o|
4o-------<7>------|------<7>-------o|o---<5>-----<7>--|----<5>---------o|
|----<7>-----<12>-|----<7>-----<12>-|<4>--------------|<4>--------------|
|-----------------|-----------------|-----------------|-----------------|

                                      Repeat 3 times
  q   q   q   q     e q   Q     q     q   q   q   q     e q   Q     q
|-----------------|-----------------|-----------------|-----------------|G|
|-----------------|-----------------|-----------------|-----------------|T|
|-0-------2-------|-------0---------|o0-------2-------|-------0--------o|R|
|-----2-----------|--h----------4---|o----2-----------|--h----------4--o|1|
|-------------0---|-4-5-------------|-------------0---|-4-5-------------| |
|-----------------|-----------------|-----------------|-----------------| |
                                                                          |
  q   q   q   q     w                 q   q   q   e e   e e e Q     q     |
|-----------------|-----------------|-----------------|-----------------|G|
|-----------------|-----------------|-----------------|------------<7>--|T|
|<12>-------------|-----------------|o12>-------------|------<5>-------o|R|
|--------<7>------|-----------------|o-------<7>------|----<5>---------o|2|
|----<7>-----<12>-|<4>--------------|----<7>-----<12>-|<4>--------------| |
|-----------------|-----------------|-----------------|-----------------| |

  studio ending
  q   q   q   q     e q   q   e q
|-----------------|-----------------|B|
|-----------------|-----------------|O|
|o0-------2-------|----------------o|T|
|o----2-----------|--h----0---0----o|H|
|-------------0---|-4-5---------4---| |
|-----------------|-----------------| |

  Exit Stage Left ending (rit)
  q   q   q   q     q   q   h
|-----------------|-----------------|
|----<7>----------|-----------------|
|<7>-----<7>------|-----------------|
|------------<7>--|<7>-----<5>------|
|-----------------|----<4>----------|
|-----------------|-----------------|

            
            
Suggest correction
Creating personal tab
Creating personal tab
You can edit any tab online and save it as your Personal.

You can edit, replace or remove any tab part or add personal notes – all changes will be seen only by you.

Personal tabs can be accessed anytime from any device, even offline.
Learn more »
comments
print report bad tab
guest
You may want to rate the tab now too:
select rating
Wanna post a correction for this tab? Suggest correction