Oops, an error
Loading. Please wait.

Resist Live tab

version 2
version 2

Whole song

Interactive

by Rush
14,195 views 18 this week
1 commentread comment
1 2 3 4 5
x 10
add to favorites
×
Save as Personal and add changes to this tab that will be seen only by you. Learn more ›
×
You can save this tab as Personal to edit and correct it or add notes. All changes will be seen only by you. Learn more »
launch autoscroll
font size
0
reset
how to read this tab
guitar tuner
edit
Autoscroll
slow
fast
+/-
esc
set tempo
stop
Author
Difficulty
This tab is from Rush In Rio, and it sounds 100%. GIVVVER.
Tabbed By EVAN MILES
April 2, 2006

D |----------------------------------------------------------------------------------------|
A |-----1----------------3-------------1------------0-------------1----------------3-------|
F |------------0-------0---0---------2-----0----------0-------------------0------0---0-----|
C |---2-----Oh2------4-------4---2-2-----2--------0-----0-------2------Oh2-----4-------4---|
G |-3-----3--------5-------------0--------------2-------------3------3-------5-------------|
D |-------------------------------------------3--------------------------------------------|

D |-------0-1--------Oh1--|----------------------------------------------------------------|
A |-----------------------|-------------------------12-12/15-15-15-12-12-------------------|
F |---2Oh0--------2Oh0----|-12/14--14--14/16--12-12----------------------14-12---12/14-----|
C |-3-----------3---------|----------------------------------------------------------------|
G |-----------------------|----------------------------------------------------------------|
D |-----------------------|----------------------------------------------------------------|

D |----------------------------------------------------------------------------------------|
A |-----------------------12-12/15-------------------------------------------------12-12/15|
F |-14--14/16\14--12-12-------------14-14/16-16-14-12---12/14--14--14/16\14--12-12---------|
C |----------------------------------------------------------------------------------------|
G |----------------------------------------------------------------------------------------|
D |----------------------------------------------------------------------------------------|

D |------------------------------------------------------12--------------------------------|
A |-15-15-12-12------------------------------------------10--------------------------------|
F |----------------14-12---12/14-14--14/16\14--12-12-----12--------------------------------|
C |----------------------------------------------------------------------------------------|
G |----------------------------------------------------------------------------------------|
D |----------------------------------------------------------------------------------------|

   Chorus Begins -0:43-
D |----------------------------------------------------------------------------------------|
A |-----1----------------3-------------1------------0-------------1----------------3-------|
F |------------0-------0---0---------2-----0----------0-------------------0------0---0-----|
C |---2-----Oh2------4-------4---2-2-----2--------0-----0-------2------Oh2-----4-------4---|
G |-3-----3--------5-------------0--------------2-------------3------3-------5-------------|
D |-------------------------------------------3--------------------------------------------|

       
D |-------0-----1--------------------------------------------------------------------------|
A |---------1----1--Oh1--------1--------------3-------------1-------------3-1-0--------1---|
F |---2Oh0--------2----0--------------0-----0---0---------2-----0--------------------------|
C |-3--------------3---------2-----Oh2----4-------4---2-2-----2---------0------------2-----|
G |------------------------3-----3------5-------------0---------------2------------3-------|
D |-----------------------------------------------------------------3----------------------|

                                    Chorus Ends -1:11-
D |--------------------------------0-1---------1Oh0---|---5-----7-----5---3-3-3-3-3-3------|
A |----------------3----------------------------------|---5-----7-----5---3-3-3-3-3-3------|
F |------0-------0---0--------2Oh0--------2Oh0------0-|-5-5---7-7---5-5---4-4-4-4-4-4----5-|
C |---Oh2------4-------4----3-----------3-------------|-5-----7-----7-----5-5-5-5-5-5----5-|
G |-3--------5----------------------------------------|-3-----5-----7-----5-5-5-5-5-5----3-|
D |---------------------------------------------------|-3-----5-----5-----3-3-3-3-3-3----3-|

                         Chorus Begins -1:26-
D |-5-----7---------5---|------------------------------------------------------------------|
A |-5-----7--------5Oh6-|-----1----------------3-------------1--------------3Oh0---------1-|
F |-5---7-7-------5-----|------------0-------0---0---------2-----0--------------0----------|
C |-----7--------7------|---2-----Oh2------4-------4---2-2-----2---------0-------------2---|
G |-----5-------7-------|-3-----3--------5-------------0---------------2-------------3-----|
D |-----5------5--------|--------------------------------------------3---------------------|


D |-------------------------------1---------------1----------------------------------------|
A |----------------3-------1-------------1----------0---------1----------------3-----------|
F |------0-------0---0-------2Oh0-----2----2Oh0---------------------0--------0---0---------|
C |---Oh2------4-------4------------3-----------3----------2-----Oh2-------4-------4---2-2-|
G |-3--------5-------------------------------------------3------3--------5-------------0---|
D |----------------------------------------------------------------------------------------|

                                                                         Chorus Ends -1:55-
D |---------------------------------------------------------------0---1----------0-1-------|
A |---1-------------3-1-0-------1----------------3------------------1----------------------|
F |-2-----0----------------------------0-------0---0---------2Oh0-----------2Oh0-----------|
C |-----2---------0-----------2-----Oh2------4-------4-----3--------------3----------------|
G |-------------2-----------3------3-------5-----------------------------------------------|
D |-----------3----------------------------------------------------------------------------|


D |----------------------------------------------------------------------------------------|
A |----------------------------12-12/15-15-15-12-12----------------------------------------|
F |-12/14--14--14/16--12-12-------------------------14-12---12/14--14--14/16\14--12-12-----|
C |----------------------------------------------------------------------------------------|
G |----------------------------------------------------------------------------------------|
D |----------------------------------------------------------------------------------------|


D |-3-3---3-3------------------------------------------------------------------------------|
A |-3-3---0-0-------------------------------12/15-15-15-12-12------------------------------|
F |-0-0---0-0----12/14--14--14/16-\14--12-12------------------14-12---12/14--14--14/16\14--|
C |-0-0---0-0------------------------------------------------------------------------------|
G |-2-2---2-2------------------------------------------------------------------------------|
D |-3-3---3-3------------------------------------------------------------------------------|

                                                                   Chorus Begins -2:34-
D |---------12--12----12----12-------------------------------------0---0---0---3---2---3---|
A |---------10----10----10----10----------1---------------3--------1---0---1---3---3---3---|
F |-12-12---12------12----12----12--------------0-------0---0------2---0---0---0---2---2---|
C |-------------------------------------2----Oh2------4-------4----2---2---2---0---0---0---|
G |-----------------------------------3-----3-------5--------------0---2---3---2---0---0---|
D |----------------------------------------------------------------0---0---0---3---2---2---|

   New Chorus Begins -2:50-
D |-7-7-7-7-7-7----8--8--8--8--8--8---10-10-10-10-10-10---3-3-3----------------------------|
A |-8-8-8-8-8-8----8--8--8--8--8--8---10-10-10-10-10-10---3-3-3----------------------------|
F |-9-9-9-9-9-9----9--9--9--9--9--9---12-12-12-12-12-12---5-5-5----5-5-5-5-5-5---7-7-7-7-7-|
C |-9-9-9-9-9-9---10-10-10-10-10-10---12-12-12-12-12-12---5-5-5----5-5-5-5-5-5---7-7-7-7-7-|
G |-7-7-7-7-7-7---10-10-10-10-10-10---10-10-10-10-10-10---3-3-3----3-3-3-3-3-3---5-5-5-5-5-|
D |----------------------------------------------------------------3-3-3-3-3-3---5-5-5-5-5-|

                                                               New Chorus Begins -3:20- 
D |---------------------------------------------------------5-5-5-5-5-5------3-3-3-3-3-3---|
A |---------------------------------------------------------6-6-6-6-6-6------3-3-3-3-3-3---|
F |-5-5-5-5-5-5---4-4-4-4-4-4---5-5-5-5-5-5---7-7-7-7-7-7---5-5-5-5-5-5------5-5-5-5-5-5---|
C |-7-7-7-7-7-7---5-5-5-5-5-5---5-5-5-5-5-5---7-7-7-7-7-7---7-7-7-7-7-7------5-5-5-5-5-5---|
G |-7-7-7-7-7-7---5-5-5-5-5-5---3-3-3-3-3-3---5-5-5-5-5-5---7-7-7-7-7-7------3-3-3-3-3-3---|
D |-5-5-5-5-5-5---3-3-3-3-3-3---3-3-3-3-3-3---5-5-5-5-5-5---5-5-5-5-5-5------3-3-3-3-3-3---|


D |-5-5-5-5-5-5---5-5-5-5-5-5---3-3-3-3-3-3----3-3-3-3-3-3---5-5-5-5-5-5---5-5-5-5-5-5-5-5-|
A |-5-5-5-5-5-5---5-5-5-5-5-5---3-3-3-3-3-3----3-3-3-3-3-3---5-5-5-5-5-5---6-6-6-6-6-6-6-6-|
F |-7-7-7-7-7-7---5-5-5-5-5-5---4-4-4-4-4-4----5-5-5-5-5-5---7-7-7-7-7-7---5-5-5-5-5-5-5-5-|
C |-7-7-7-7-7-7---7-7-7-7-7-7---5-5-5-5-5-5----5-5-5-5-5-5---7-7-7-7-7-7---7-7-7-7-7-7-7-7-|
G |-5-5-5-5-5-5---7-7-7-7-7-7---5-5-5-5-5-5----3-3-3-3-3-3---5-5-5-5-5-5---7-7-7-7-7-7-7-7-|
D |-5-5-5-5-5-5---5-5-5-5-5-5---3-3-3-3-3-3----3-3-3-3-3-3---5-5-5-5-5-5---5-5-5-5-5-5-5-5-|

                                                                          Chorus Ends -3:47-
D |-3-3-3-3-3-3---5-5-5-5-5-5---5-5-5-5-5-5---3-3-3-3-3-3----3-3-3-3-3-3---5-5-5-5-5-5----8|
A |-3-3-3-3-3-3---5-5-5-5-5-5---5-5-5-5-5-5---3-3-3-3-3-3----3-3-3-3-3-3---5-5-5-5-5-5----8|
F |-5-5-5-5-5-5---7-7-7-7-7-7---5-5-5-5-5-5---4-4-4-4-4-4----5-5-5-5-5-5---7-7-7-7-7-7---10|
C |-5-5-5-5-5-5---7-7-7-7-7-7---7-7-7-7-7-7---5-5-5-5-5-5----5-5-5-5-5-5---7-7-7-7-7-7---10|
G |-3-3-3-3-3-3---5-5-5-5-5-5---7-7-7-7-7-7---5-5-5-5-5-5----3-3-3-3-3-3---5-5-5-5-5-5----8|
D |-3-3-3-3-3-3---5-5-5-5-5-5---5-5-5-5-5-5---3-3-3-3-3-3----3-3-3-3-3-3---5-5-5-5-5-5----8|


D |----------------------------------------------------------------------------------------|
A |----------------------------12-12/15-15-15-12-12----------------------------------------|
F |-12/14--14--14/16--12-12-------------------------14-12---12/14--14--14/16\14--12-12-----|
C |----------------------------------------------------------------------------------------|
G |----------------------------------------------------------------------------------------|
D |----------------------------------------------------------------------------------------|


D |-3-3---3-3-3-3-3-3----------------------------------------------------------------------|
A |-3-3---0-0-0-0-0-0--------------------------------12-12/15-15-15-12-12------------------|
F |-0-0---0-0-0-0-0-0----12/14--14--14/16-\14--12-12---------------------14-12---12/14--14-|
C |-0-0---0-0-0-0-0-0----------------------------------------------------------------------|
G |-2-2---2-2-2-2-2-2----------------------------------------------------------------------|
D |-3-3---3-3-3-3-3-3----------------------------------------------------------------------|

                               End -4:20-                         
D |-------------------------12-------------------------------------------------------------|
A |-------------------------10-------------------------------------------------------------|
F |-14/16-\14--12--12-------12-------------------------------------------------------------|
C |----------------------------------------------------------------------------------------|
G |----------------------------------------------------------------------------------------|
D |----------------------------------------------------------------------------------------|


If you have any feedback email me at evan_miles01@hotmail.com
PEAAAAACEEEE OUTTTTTTTT

            
            
Suggest correction
Creating personal tab
Creating personal tab
You can edit any tab online and save it as your Personal.

You can edit, replace or remove any tab part or add personal notes – all changes will be seen only by you.

Personal tabs can be accessed anytime from any device, even offline.
Learn more »
comments
print report bad tab
1 comment total.
0 reply
Cryptoman13 10 Sep 07, 2014 11:00 AM

Great Tab, But everyone should know that this is in C Standard tuning, if you didn't know that.

guest
You may want to rate the tab now too:
select rating
Wanna post a correction for this tab? Suggest correction