Oops, an error
Loading. Please wait.

The Garden Bass Tab

version 1
version 1

Intro

Interactive

by Rush
3,458 views 9 this week
no commentswrite comment
1 2 3 4 5
accurate
x 3
add to favorites
launch autoscroll
font size
0
reset
guitar tuner
Autoscroll
slow
fast
+/-
esc
set tempo
stop
Help us to improve Ultimate-Guitar.com Take our survey!
×
Author
Here is the bass intro to The Garden off of Clockwork Angels. I don't have the time to 
tab out the rest, so hopefully this inspires someone else to do it for me!

G---14--15--14--17-----14--15--14-----14--15--14--10-----10--10--10---|
D-15--15--15--15--15-15--15--15--15-15--15--15--15--11-11--11--11--11-|
A---------------------------------------------------------------------|
E---------------------------------------------------------------------|


G---14--15--14--17-----14--15--14-----14--15--14--12-----12--12--12---|
D-15--15--15--15--15-15--15--15--15-15--15--15--15--13-13--13--13--13-|
A---------------------------------------------------------------------|
E---------------------------------------------------------------------|
Suggest correction
Give kudos to tab author, rate the tab!
1 2 3 4 5
comments
print report bad tab
guest
You may want to rate the tab now too:
select rating
Please do not post tabs as comments. Select "correction" instead!