Oops, an error
Loading. Please wait.

The Larger Bowl tab

version 1
version 1

Whole song

Interactive

by Rush
4,510 views 1 this week
2 commentsread comments
1 2 3 4 5
x 5
add to favorites
×
Save as Personal and add changes to this tab that will be seen only by you. Learn more ›
×
You can save this tab as Personal to edit and correct it or add notes. All changes will be seen only by you. Learn more »
launch autoscroll
font size
0
reset
how to read this tab
guitar tuner
edit
Autoscroll
slow
fast
+/-
esc
set tempo
stop
Author
Difficulty
Unregistered
the chords for this song are C, Am, Em and G

Intro:C C, Am Am, Em Em.......C C, Am Am(ohohoooo).....C C, Am Am, Em Em

e|-----------------------------------------------|
B|-----1----1------1----1-----1---1------0---3---|
G|------0----2-----------2-----0---2----------0--|
D|---2-----2------2----2-----2----2-----2--------|
A|--3-----0------3----0-----3----0-----2----2----|
E|-----------------------------------------3-----|


^Play that riff until he says "iron gates"

then play the same riff except pick the first two strings and strum the rest for each chord

 example:
e|---0--|
B|---1--|
G|---0--|
D|--2---|
A|-3----|
E|------|

Then when he says "some are blessed and some are cursed" at 1:06
strum the chords

then just repeat everything again.... you will figure it out
Suggest correction
Creating personal tab
Creating personal tab
You can edit any tab online and save it as your Personal.

You can edit, replace or remove any tab part or add personal notes – all changes will be seen only by you.

Personal tabs can be accessed anytime from any device, even offline.
Learn more »
comments
print report bad tab
2 comments total.
+1 reply
cwalsh09 10 Aug 23, 2009 02:11 PM

The very first few picks go more like this...

e|-------------------------------------------------------------------|
B|-------1----------1---------1-----1--------------------------------|
G|---------0---------0---------------0-------------------------------|
D|----2----------2---------2-----2-----------------------------------|
A|--3----------0---------3-----0-------------------------------------|
E|-------------------------------------------------------------------|

Most that repeats again but it changes slightly for the last part.I might just tab out this whole song again because everything except for the intro chords is basically wrong.

0 reply
drippy_sink 21 Feb 04, 2011 12:36 PM

the first part of the arpeggio part sounds about right, but parts of it are a little off. sounds pretty close, though

guest
Wanna post a correction for this tab? Suggest correction