Oops, an error
Loading. Please wait.

The Necromancer Iii Return Of The Prince Tab

version 1
version 1

Whole song

Interactive

3,199 views 6 this week
no commentswrite comment
1 2 3 4 5
x 3
add to favorites
launch autoscroll
font size
0
reset
how to read this tab
guitar tuner
×
Best way to learn
"The Necromancer Iii Return Of The Prince"
Autoscroll
slow
fast
+/-
esc
set tempo
stop
Rush - III Return of the Prince

 [Intro]
    E           B(addE)    A(addB)    B(addE)
e|--------0---------0----------0----------0--------------------------|
B|----------0---------0----------0----------0------------------------|
G|----13---------8----------6----------8-----------------------------|
D|-14----------9----------7----------9-------------------------------|
A|-------------------------------------------------------------------|
E|-------------------------------------------------------------------|

 [Riff 1]
     E          B(addE)   A(addB)    B(addE)
e|-------------------------------------------------------------------|
B|--12-12-12---7--7-----5--5--5-----7--7-----------------------------|
G|--13-13-13---8--8-----6--6--6-----8--8-----------------------------|
D|--14-14-14---9--9-----7--7--7-----9--9-----------------------------|
A|-------------------------------------------------------------------|
E|-------------------------------------------------------------------|

 [Riff 2]
     E          B       A          B
e|--0--0--0----2--2---------------2-2--------------------------------|
B|--0--0--0----4--4----2----------4-4--------------------------------|
G|--1--1--1----4--4----2----------4-4--------------------------------|
D|--2--2--2----4--4----2----------4-4--------------------------------|
A|--2--2--2----2--2----0----------2-2--------------------------------|
E|--0--0--0----------------------------------------------------------|

[Intro] x5

With [Intro]:

Enter the Champion, Prince By-Tor appears.
To battle for freedom from chains of long years.
The spell has been broken, the Dark Lands are bright.
The wraith of the Necromancer soars away in the night.

[Riff 1] and [Intro] x8

[Riff 1] and [Intro] w/ lyrics:

Stealthily attacking, By-Tor slays his foe.
The men are free to run now, from labyrinths below.
Wraith of the Necromancer shadows through the sky.
Another land to darken with evil prism eye.

[Riff 1] and [Intro] continue throughout; now joined by [Riff 2]

[Guitar Solo] - Did my best; Hope it's right!

e|-------------------------------------------------------------------|
B|-------------------------------------------------------------------|
G|-14b16~~--14b16--14b16--14b16~~~~r14-----------12h13p12-----12-----|
D|--------------------------------------------14-----------14--------|
A|-------------------------------------------------------------------|
E|-------------------------------------------------------------------|

e|---------------------------------------------------------------------|
B|---------------------------------------------------------------------|
G|-13~~---13b14~~-----13b14r13p12-------12-----------------------------|
D|----------------------------------14-----14-12-14~~---14p12----------|
A|------------------------------------------------------------14p12----|
E|---------------------------------------------------------------------|

e|----------------------------------------------------------------------|
B|----------------------------------------------------------------------|
G|-----------------------------------------------9-9-9~--11b13~13~13r11-|
D|-------------------------------------9~--9h11-------------------------|
A|-------------------9----------10h12-----------------------------------|
E|--12h14p12~--10h12---12-12~-------------------------------------------|

e|-------------------------------------------------------------------|
B|------------------------------14p12~--12-14-12-12~--14p12-12~------|
G|-11b13~13~13r11p9--11b13r11----------------------------------------|
D|-------------------------------------------------------------------|
A|-------------------------------------------------------------------|
E|-------------------------------------------------------------------|

e|--14b16--14b16~--15b17-14b16-14-12--14--12------12~----------------|
B|--------------------------------------------14---------14p12~------|
G|---------------------------------------------------------------14--|
D|-------------------------------------------------------------------|
A|-------------------------------------------------------------------|
E|-------------------------------------------------------------------|

e|----------------12-----14p12----12--14p12----12--14p12----12-------|
B|-12~-14p12~--12----12--------12-----------12-----------12----------|
G|-------------------------------------------------------------------|
D|-------------------------------------------------------------------|
A|-------------------------------------------------------------------|
E|-------------------------------------------------------------------|

e|-14p12----12--14p12----14p12----12--14p12----12--14p12----12-------|
B|-------12-----------12-------12-----------12-----------12----------|
G|-------------------------------------------------------------------|
D|-------------------------------------------------------------------|
A|-------------------------------------------------------------------|
E|-------------------------------------------------------------------|

e|---14p12----12--14p12----12--14p12---------------------------------|
B|---------12-----------12-----------12------------------------------|
G|---------------------------------------14-14-----14----------------|
D|------------------------------------------16b18--16b18~~~~b18------|
A|-------------------------------------------------------------------|
E|-------------------------------------------------------------------|

e|-------------------------------------------------------------------|
B|-------------------------------------------------------------------|
G|-14-----14------------------------14---------14--------------------|
D|-16b18--16b18~~~r16--16p14----14--16b18r16~--16b18r16----14-14~----|
A|---------------------------16-------------------------16-----------|
E|-------------------------------------------------------------------|

e|-------------------------------------------------------------------|
B|-------------------------------------------------------------------|
G|-------------------------------------------------------------------|
D|--11-9-------------------------14----14-14------14----14----14-14--|
A|-------11-9----------12h14~-14----14-------14~-----14----14--------|
E|------------12-12~~------------------------------------------------|

e|---------------------------|---------------------------------------|
B|---------------------------|-12--15-14-12-12-14-15b17-15b17~~------|
G|---------------------------|---------------------------------------|
D|-----14-----11h12~--12h14~-|---------------------------------------|
A|-14-----14-----------------|---------------------------------------|
E|---------------------------|---------------------------------------|

e|-------------------------------------------------------------------|
B|-17b19~~--15b16-15-12-14-12----------------------------------------|
G|-----------------------------14b16r14p12----14-12~---------12h14~--|
D|-----------------------------------------14----------14-14---------|
A|-------------------------------------------------------------------|
E|-------------------------------------------------------------------|

e|-(16)r15p12--------------------------------------------------------|
B|------------15-15b17-15b17-15b17~--15p12----12-------12-------12---|
G|-----------------------------------------14----14b16----14b16------|
D|-------------------------------------------------------------------|
A|-------------------------------------------------------------------|
E|-------------------------------------------------------------------|

e|-------------------------------------------------------------------|
B|-------12-------12-------------------------------------------------|
G|-14b16----14b16----14p12----14~\-------9--11b13r11-----9~----------|
D|-------------------------14-------9h11--------------x--------11p9--|
A|-------------------------------------------------------------------|
E|-------------------------------------------------------------------|

e|-------------------------------------------------------------------|
B|-------------------------------------------------------------------|
G|-------------------------------------------------------------------|
D|------------6.--9~--[11]-[9]---------------------------------------|
A|-11.----7h9------------------[11]-[9]------------------------------|
E|--------------------------------------[12]~---9h12-12h14p12s9------|

Repeat until fade:

e|-------------------------------------------------------------------|
B|-------------------------------------------------------------------|
G|----------------(7)-8--9~------------------------------------------|
D|-------6--7--9-----------------------------------------------------|
A|-------------------------------------------------------------------|
E|---0~--------------------------------------------------------------|
Suggest correction
Give kudos to tab author, rate the tab!
1 2 3 4 5
comments
print report bad tab
guest
You may want to rate the tab now too:
select rating
Wanna post a correction for this tab? Suggest correction