Oops, an error
Loading. Please wait.
We have an official The Spirit Of Radio tab made by UG professional guitarists. Check out the tab »
×
by Rush
54,386 views 6 this week
18 commentsread comments
1 2 3 4 5
x 31
add to favorites
×
Save as Personal and add changes to this tab that will be seen only by you. Learn more ›
×
You can save this tab as Personal to edit and correct it or add notes. All changes will be seen only by you. Learn more »
launch autoscroll
font size
0
reset
how to read this tab
guitar tuner
backing track
0:00
0:00
edit
Autoscroll
slow
fast
+/-
esc
set tempo
stop
Author
Unregistered
[Main Riff]
   T P  P  H  T   P  P  H  T  P  P  H  T  P  P  P  H
e|---^--^--^--^---^--^--^--^--^--^--^--^--^--^--^--^----|
B|-7--5--3--5--10--5--3--5--7--5--3--5--9--7--5--3--5---|
G|------------------------------------------------------|
D|------------------------------------------------------|
A|------------------------------------------------------|
E|------------------------------------------------------|

   T P  P  H  T   P  P  H  T  P  P  H  T  P  P  P  H
e|---^--^--^--^---^--^--^--^--^--^--^--^--^--^--^--^----|
B|-7--5--3--5--10--5--3--5--7--5--3--5--9--7--5--3--5---|
G|------------------------------------------------------|
D|------------------------------------------------------|
A|------------------------------------------------------|
E|------------------------------------------------------|

[Main riff] (x7)
     T P  P  H  T   P  P  H  T  P  P  H  T  P  P  P  H
e|---^--^--^--^---^--^--^--^--^--^--^--^--^--^--^--^----|
B|-7--5--3--5--10--5--3--5--7--5--3--5--9--7--5--3--5---|
G|------------------------------------------------------|
D|------------------------------------------------------|
A|------------------------------------------------------|
E|------------------------------------------------------|

e|-----------------------|----------------------------|
B|-----------------------|----------------------------|
G|-----------------------|----------------------------| (x4)
D|--4--2--0-----0--------|--------------------------2-|
A|-----------3-----3--2--|--------------0--2--3--4----|
E|-----------------------|--0--2--3--4----------------|

    E         B5          G#5                     A5                    B5
e|------|-----------|-----------------------|---------------------|-------------|
B|------|-----------|-----------------------|---------------------|-------------|
G|--1---|-----------|-----------------------|---------------------|-------------|
D|--2---|-----9-\---|-----6-6-6-6-6-6-6-6---|-----7-7-7-7-7-7-7---|-----9-------|
A|--2---|-----9-\---|-----6-6-6-6-6-6-6-6---|-----7-7-7-7-7-7-7---|-----9-------|
E|--0---|-----7-\---|-----4-4-4-4-4-4-4-4---|-----5-5-5-5-5-5-5---|-----7-------|

[Pre-Verse Riff]
    E               B5             G#5                A5
e|--------0---------------0---------------0------------------------|
B|--------0--0------------0--0---------------0---------------------|
G|--1---------------4---------------------------------2-------P----|
D|--2---------------4---------------6-----------------2-------^----|
A|--2------------0--2--2------------6-----------------0--0--4--2---|
E|--0--0-------------------------0--4--4--------4--4---------------|

[Verse Riff 1]  
"Begin the day..."
    E               B5             G#5                A5
e|--------0---------------0---------------0------------------------|
B|--------0--0------------0--0---------------0---------------------|
G|--1---------------4---------------------------------2--2--4------|
D|--2---------------4---------------6-----------------2--2--4------|
A|--2------------0--2--2------------6-----------------0--0--2------|
E|--0--0-------------------------0--4--4--------4--4---------------|(x2)

[Pre-Verse Riff]
    E               B5             G#5                A5
e|--------0---------------0---------------0------------------------|
B|--------0--0------------0--0---------------0---------------------|
G|--1---------------4---------------------------------2-------P----|
D|--2---------------4---------------6-----------------2-------^----|
A|--2------------0--2--2------------6-----------------0--0--4--2---|
E|--0--0-------------------------0--4--4--------4--4---------------|

[Verse Riff 2]
"Off on your way..."
e|--------4--0---------2--2---------4--0----------------|
B|-----0--5--0------0--0--4---------4--0----------------|
G|--1------------4-------------------------2--2--4------|
D|--2------------4------------6------------2--2--4------|
A|--2------------2------------6------------0--0--2------|
E|--0-------------------------4--4----------------------|(x2)

[End Verse Riff]
e|--------0---------------0-----------------------------------------------------|
B|--------0--0------------0--0--------------------------------------------------|
G|--1---------------4-----------------------------------------------------------|
D|--2---------------4-----------------6--6--6--6--6--6--6--6--7--7--7--7--7--9--|
A|--2------------0--2--2--------------6--6--6--6--6--6--6--6--7--7--7--7--7--9--|
E|--0--0------------------------4--0--4--4--4--4--4--4--4--4--5--5--5--5--5--7--|

e|----------------------| (x2)
B|--7--5--3---9--7--5---|  
G|----------------------|
D|----------------------|
A|----------------------|
E|----------------------|

"All this machinery..."

    E                 B5                G#5               A       B
e|--0---0------0------2---2------2------4---4------4------0---0---2-------------|
B|--1---1------1------4---4------4------4---4------4------2---2---4-------------|
G|--1---1------1------4---4------4------5---5------5------2---2---4-------------|
D|--2---2------2------4---4------4------6---6------6------2---2---4-------------|
A|--2---2------2------2---2------2------6---6------6------0---0---2-------------|
E|--0---0------0------------------------4---4------4----------------------------|

    E                D/F#             E/G#
e|--0---0---0--0--0-------------------0---0---0--0--0---------------------------|
B|--0---0---0--0--0--3---3---3--3--3--0---0---0--0--0--3---3---3--3--3----------| (x2)
G|--1---1---1--1--1--2---2---2--2--2--4---4---4--4--4--2---2---2--2--2----------|
D|--2---2---2--2--2--0---0---0--0--0--2---2---2--2--2--0---0---0--0--0----------|
A|--2---2---2--2--2--x---x---x--x--x--x---x---x--x--x--x---x---x--x--x----------|
E|--0---0---0--0--0--2---2---2--2--2--4---4---4--4--4--2---2---2--2--2----------|

e|--4---4---5---7---------------------------------------------------------------|
B|--5---5---5---5---------------------------------------------------------------|
G|------------------------------------------------------------------------------|
D|------------------------------------------------------------------------------|
A|------------------------------------------------------------------------------|
E|------------------------------------------------------------------------------|
  
e|--0----------------------------------------------------------------------------|
B|--0----------------------------------------------------------------------------|
G|--1-------------9\-------------------------------------------------------------|
D|--2-------------9\-------------------------------------------------------------|
A|--2-------------7\-------------------------------------------------------------|
E|--0----------------------------------------------------------------------------|


************************************

| P  Pop
| \  Slide down
| x  Dead note 

************************************

            
            
Suggest correction
Creating personal tab
Creating personal tab
You can edit any tab online and save it as your Personal.

You can edit, replace or remove any tab part or add personal notes – all changes will be seen only by you.

Personal tabs can be accessed anytime from any device, even offline.
Learn more »
comments
print report bad tab
18 comments total. Showing first comments.
-2 reply
FrankNslash 10 Nov 01, 2004 07:00 PM

the way i play it is much esier

-1 reply
gnomieowns 321 Jul 15, 2008 04:11 PM

yeah the intro isn't tapping but it's a lot easier.

and it looks cooler.

0 reply
guitar121 10 Nov 01, 2008 04:06 AM

i think this tabs pretty good maan

guest
Wanna post a correction for this tab? Suggest correction