Oops, an error
Loading. Please wait.
We have an official The Spirit Of Radio tab made by UG professional guitarists. Check out the tab »
×
by Rush
5,575 views 6 this week
no commentswrite comment
1 2 3 4 5
x 6
add to favorites
×
Save as Personal and add changes to this tab that will be seen only by you. Learn more ›
×
You can save this tab as Personal to edit and correct it or add notes. All changes will be seen only by you. Learn more »
launch autoscroll
font size
0
reset
guitar tuner
backing track
0:00
0:00
edit
Autoscroll
slow
fast
+/-
esc
set tempo
stop
Author
Difficulty
G|---------------------------------7-7-------------------4---6-----|
D|-----------------------------------------------------------------|
A|-----------------------------------------------------------------|
E|-0---------------------------------------------------------------|
   1 e + a 2 e + a 3 e + a 4 e + a 1 e + a 2 e + a 3 e + a 4 e + a

G|-6-6---------------------------------------------------------------------|
D|---------7-7---------7-7---------7-7---------7-5-4-0-2-4-----------------|
A|-------------------------5-----------5---------------------5---5-7-------|
E|-------------------------------------------------------------------------|
   1 e + a 2 e + a 3 e + a 4 e + a 1 e + a 2 e + a 3 e + a 4 e + a 5 e + a

G|------------------------------------------------7-5-4------------------------------------------|
D|------------------------------------------------------7-0-5-4-----------------4---2-0----------|
A|--------------------------------7-7-----------7---------------7-5-4-------------------4-5-4-2--|
E|0-------------------------------------------------------------------7-5-4-0-------------------0|
   1 e + a 2 e + a 3 e + a 4 e + a 1 e + a 2 e + a 3 e + a 4 e + a 1 e + a 2 e + a 3 e + a
4 e + a

0:17
G|-----------------------------------------------------------------|
D|-----------------------------2-------------------------------2---|
A|---------------0---0-2-0-3h4-------------------0---0-2-0-3h4-----|
E|-----2---3-0-4-----------------0-----2---3-0-4-----------------0-|
   1 + 2 + 3 + 4 + 1 + 2 + 3 + 4 + 1 + 2 + 3 + 4 + 1 + 2 + 3 + 4 +

G|------------------------------------------------------------------|
D|-----------------------------2-------------------------------2----|
A|---------------0---0-2-0-3h4-------------------0---0-2-0-3h4------|
E|-----2---3-0-4-----------------0-----2---3-0-4--------------------|
   1 + 2 + 3 + 4 + 1 + 2 + 3 + 4 + 1 + 2 + 3 + 4 + 1 + 2 + 3 + 4 +

G|---------------------------------------------------------------------|
D|---------------------------------------------------------------------|
A|-----------------2---------------------------------------------------|
E|-0-------------------------------4-4-4-4-4-4-4-4-5-5-5-5-5-5-5-7-----|
   1 + 2 + 3 + 4 + 1 + 2 + 3 + 4 + 1 + 2 + 3 + 4 + Tripl Tripl 3 + 4 +

0:34
G|-----------------------------------------------------------------|
D|-----------------------------------------------------------------|
A|---------------242-----2---222-------------------0-----4---2---7-|
E|-0-----0---0-0-----------------2-4-----4---442-4-----------------|
   1 + 2 + 3 + 4 + 1 + 2 + 3 + 4 + 1 + 2 + 3 + 4 + 1 + 2 + 3 + 4 +

0:40
G|-----------------------------------------------------------------|
D|-----------------------------------------------------------------|
A|---------------242--22-2---222-------------------0-----0---2---4-|
E|-0-----0---0-0-----------------2-4-----4---4-2-4-----------------|
   1 + 2 + 3 + 4 + 1 + 2 + 3 + 4 + 1 + 2 + 3 + 4 + 1 + 2 + 3 + 4 +

G|------------------------------------------------------------------|
D|------------------------------------------------------------------|
A|---------------242-----2---2-2-------------------0-00--0---242424-|
E|-0-----0---000-----------------2-4-----4---44--4------------------|
   1 + 2 + 3 + 4 + 1 + 2 + 3 + 4 + 1 + 2 + 3 + 4 + 1 + 2 + 3 + 4 +

G|-----------------------------------------------------------------|
D|-----------------------------------------------------------------|
A|---------------242--22-2---222-------------------0-----4---2---7-|
E|-0-----0---0-0-----------------2-4-----4---442-4-----------------|
   1 + 2 + 3 + 4 + 1 + 2 + 3 + 4 + 1 + 2 + 3 + 4 + 1 + 2 + 3 + 4 +

G|-----------------------------------------------------------------|
D|-----------------------------------------------------------------|
A|-----------------2-22--2---222-------------------0-00--0---2---4-|
E|-0-----0---0-0-0---------------2-4-44--4---442-4-----------------|
   1 + 2 + 3 + 4 + 1 + 2 + 3 + 4 + 1 + 2 + 3 + 4 + 1 + 2 + 3 + 4 +

G|------------------------------------------------------------------|
D|------------------------------------------------------------------|
A|---------------242-22--2---222-------------------0-0-0-0-42024247-|
E|-0-00--0---0-0-----------------2-4-----4---4-2-4------------------|
   1 + 2 + 3 + 4 + 1 + 2 + 3 + 4 + 1 + 2 + 3 + 4 + 1 + 2 + 3 + 4 +

G|-----------------------------------------------------------------|
D|-----------------------------------------------------------------|
A|---------------242--2202---222-----------------------------------|
E|-0-----0---0-0-----------------2-4-4-4-4-4-4-4-4-5-5-5-5-5-7-----|
   1 + 2 + 3 + 4 + 1 + 2 + 3 + 4 + 1 + 2 + 3 + 4 + 1 + 2 + 3 + 4 +

1:24
G|-----------------------------------------------------------------|
D|-----------------------------------------------------------------|
A|-7---------------------------------------------------------------|
E|-----------------------------------------------------------------|
   1 + 2 + 3 + 4 + 1 + 2 + 3 + 4 + 1 + 2 + 3 + 4 + 1 + 2 + 3 + 4 +

G|-----------------------------------------------------------------|
D|-----------------4---------------6---------------4---------------|
A|-7---------------------------------------------------------------|
E|-----------------------------------------------------------------|
   1 + 2 + 3 + 4 + 1 + 2 + 3 + 4 + 1 + 2 + 3 + 4 + 1 + 2 + 3 + 4 +

G|---------------------------------|
D|---------------------------------|
A|-7-------------------------------|
E|---------------------------------|
   1 + 2 + 3 + 4 + 1 + 2 + 3 + 4 +

G|-----------------------------------------------------------------|
D|-----------------4---------------6---------------4---------------|
A|-7---------------------------------------------------------------|
E|-----------------------------------------------------------------|
   1 + 2 + 3 + 4 + 1 + 2 + 3 + 4 + 1 + 2 + 3 + 4 + 1 + 2 + 3 + 4 +

1:48
G|---------------------------------|
D|---------------------------------|
A|---7---7---7---7-----------------|
E|-0---0---0---0---0-0-0-0-0-0-0-0-|
   1 + 2 + 3 + 4 + 1 + 2 + 3 + 4 +

1:52
G|-----------------------------------------------------------------|
D|-----------------------------------------------------------------|
A|-----------------2-22--2---2-2-2---------------------------------|
E|-0-0---0---0-0-0-----------------4-4---4-4-4-4-4-5-55--5-5-7-7-7-|
   1 + 2 + 3 + 4 + 1 + 2 + 3 + 4 + 1 + 2 + 3 + 4 + 1 + 2 + 3 + 4 +

G|-----------------------------------------------------------------|
D|-----------------------------------------------------------------|
A|-----------------2-2---2-2-2-2-----------------------------------|
E|-0-0---0-0-0-0-0---------------2-4-44--4---4---4-5-5-5-5-5-7-7-7-|
   1 + 2 + 3 + 4 + 1 + 2 + 3 + 4 + 1 + 2 + 3 + 4 + 1 + 2 + 3 + 4 +

2:06
G|-----------------------------------------------------------------|
D|-----------------------------------------------------------------|
A|-----------------2-22--2---2-2-----------------------------------|
E|-0-0---0---0-0-0---------------2-4-4---4---4-4-4-5-5---5---4-5-7-|
   1 + 2 + 3 + 4 + 1 + 2 + 3 + 4 + 1 + 2 + 3 + 4 + 1 + 2 + 3 + 4 +

G|------------------------------------------------------------------|
D|------------------------------------------------------------------|
A|-----------------2-22--2---2-2-----------------------------242424-|
E|-0-0---0---0-0-0---------------2-4-4---4---4---4---5---5----------|
   1 + 2 + 3 + 4 + 1 + 2 + 3 + 4 + 1 + 2 + 3 + 4 + 1 + 2 + 3 + 4 +

2:20
G|-----------------------------------------------------------------|
D|-----------------------------------------------------------------|
A|---------------242-22-02---2-2-----------------------------------|
E|-0-----0---000-----------------2-4-4-4-4-4-4-4-4-5-5-5-5-5-7-----|
   1 + 2 + 3 + 4 + 1 + 2 + 3 + 4 + 1 + 2 + 3 + 4 + 1 + 2 + 3 + 4 +

2:27
G|-----------------------------------------------------------------|
D|-----------------------------------------------------------------|
A|-7---------------------------------------------------------------|
E|-----------------------------------------------------------------|
   1 + 2 + 3 + 4 + 1 + 2 + 3 + 4 + 1 + 2 + 3 + 4 + 1 + 2 + 3 + 4 +

G|-----------------------------------------------------------------|
D|-----------------4---------------6---------------4---------------|
A|-7---------------------------------------------------------------|
E|-----------------------------------------------------------------|
   1 + 2 + 3 + 4 + 1 + 2 + 3 + 4 + 1 + 2 + 3 + 4 + 1 + 2 + 3 + 4 +

G|---------------------------------|
D|---------------------------------|
A|-7-------------------------------|
E|---------------------------------|
   1 + 2 + 3 + 4 + 1 + 2 + 3 + 4 +

G|-----------------------------------------------------------------|
D|-----------------4---------------6---------------4---------------|
A|-7---------------------------------------------------------------|
E|-----------------------------------------------------------------|
   1 + 2 + 3 + 4 + 1 + 2 + 3 + 4 + 1 + 2 + 3 + 4 + 1 + 2 + 3 + 4 +

2:52
G|---------------------------------------------------------|
D|------------------2---2---2------------------22--2---2---|
A|-----------------2---2---2---------------------2---------|
E|-0-----0---------------------2-----2---2---2-------------|
   1 + 2 + 3 + 4 + 1 + 2 + 3 + 1 + 2 + 3 + 4 + 1 + 2 + 3 +

G|---------------------------------------------------4-------4-|
D|-----------------22--2---2-------------------22--2---2---2---|
A|-------------------2---22--2-------------------2-------2-----|
E|-4-----4---4---4-------------2-2---2---2---2-----------------|
   1 + 2 + 3 + 4 + 1 + 2 + 3 + 1 + 2 + 3 + 4 + 1 + 2 + 3 + 4 +

G|---------------------------------------------------------|
D|------------------2---2---2------------------22--2---2---|
A|-----------------2---2---2---------------------2---------|
E|-0-----0-----0---------------2-----2---2---2-------------|
   1 + 2 + 3 + 4 + 1 + 2 + 3 + 1 + 2 + 3 + 4 + 1 + 2 + 3 +

G|---------------------------------------------------4-------4-|
D|---------------------------------------------22--2---2---2---|
A|-----------------------------------------------2-------2-----|
E|-4-4---4---4---4---4---4-4-4-2-2---2---2---2-----------------|
   1 + 2 + 3 + 4 + 1 + 2 + 3 + 1 + 2 + 3 + 4 + 1 + 2 + 3 + 4 +

3:18
G|-----------------------------------------------------------------|
D|-----------------------------------------------------------------|
A|---------------242-----2---222-------------------0-----0-----2---|
E|-0-----0---0-0-----------------2-4-----4---442-4-----------------|
   1 + 2 + 3 + 4 + 1 + 2 + 3 + 4 + 1 + 2 + 3 + 4 + 1 + 2 + 3 + 4 +

G|---------------------------------------------------------------------|
D|---------------------------------------------------------------------|
A|---------------242--22-2---222---------------------------------------|
E|-0-----0---000-----------------2-4-4-4-4-4-4-4-4-5-5-5-5-5-5-5-7-----|
   1 + 2 + 3 + 4 + 1 + 2 + 3 + 4 + 1 + 2 + 3 + 4 + Tripl Tripl 3 + 4 +

3:32
G|---------------------------------7-5-4-2-4-2-0-----------------------------------|
D|-----------------------------------------------4-5-4-2-4-2-----4---2-0-----------|
A|-----------------------------------------------------------0-----------4-5-4-2---|
E|-0---------------0-------------------------------------------------------------0-|
   1 + 2 + 3 + 4 + 1 + 2 + 3 + 4 + 1 e + a 2 e + a 3 e + a 4 e + a 1 e + a 2 e + a

3:39
G|-----------------------------------------------------------------|
D|-----------------------------2-------------------------------2---|
A|---------------0---0-2-0-3h4-------------------0---0-2-0-3h4-----|
E|-----2---3-0-4-----------------0-----2---3-0-4-----------------0-|
   1 + 2 + 3 + 4 + 1 + 2 + 3 + 4 + 1 + 2 + 3 + 4 + 1 + 2 + 3 + 4 +

G|------------------------------------------------------------------|
D|-----------------------------2-------------------------------2/---|
A|---------------0---0-2-0-3h4-------------------0---0-2-0-3h4------|
E|---0-2---3-0-4-----------------0---0-2---3-0-4--------------------|
   1 + 2 + 3 + 4 + 1 + 2 + 3 + 4 + 1 + 2 + 3 + 4 + 1 + 2 + 3 + 4 +

3:49
G|-----------------------------------------------------------------|
D|-----------------7-7-----------------------------7-7-\-----------|
A|-----------------------------6-9-----------------------------6-9-|
E|-0-0---------------------7-7-----0-0---------------------7-7-----|
   1 + 2 + 3 + 4 + 1 + 2 + 3 + 4 + 1 + 2 + 3 + 4 + 1 + 2 + 3 + 4 +

G|-----------------------------------------------------------------|
D|-----------------7-7-----------------------------------------2---|
A|---------------------------6-9-----------------0---0-2-0-3h4-----|
E|-0-----------------------7-----0---0-2---3---4-----------------0-|
   1 + 2 + 3 + 4 + 1 + 2 + 3 + 4 + 1 + 2 + 3 + 4 + 1 + 2 + 3 + 4 +

G|-----------------------------------------------------------------|
D|-----------------------------2/------------------7-7-------------|
A|---------------0---0-2-0-3h4---------------------------------6-9-|
E|---0-2---3---4-------------------0-0---------------------7-7-----|
   1 + 2 + 3 + 4 + 1 + 2 + 3 + 4 + 1 + 2 + 3 + 4 + 1 + 2 + 3 + 4 +

G|-----------------------------------------------------------------|
D|-----------------7-7-\---------------------------------------2---|
A|---------------------------6-9-----------------0---0-2-0-3h4-----|
E|-0-0---------------------7-----0---0-2---3---4-----------------0-|
   1 + 2 + 3 + 4 + 1 + 2 + 3 + 4 + 1 + 2 + 3 + 4 + 1 + 2 + 3 + 4 +

4:14
G|-----------------------------------------------------------------|
D|-----------------------------2-------------------------------2---|
A|---------------0---0-2-0-3h4-------------------0---0-2-0-3-4-----|
E|---0-2---3---4-----------------0---0-2-2-3-3-4-------------------|
   1 + 2 + 3 + 4 + 1 + 2 + 3 + 4 + 1 + 2 + 3 + 4 + 1 + 2 + 3 + 4 +

G|-----------------------------------------------------------------|
D|-----------------------------2-----------------------4---2-------|
A|---------------0-0-2-2-0-3-4-------------------0---4---4---4-2---|
E|---0-2-2-3-3-4-----------------0---0-2-2-3-3-4-----------------0-|
   1 + 2 + 3 + 4 + 1 + 2 + 3 + 4 + 1 + 2 + 3 + 4 + 1 + 2 + 3 + 4 +

G|-----------------------------------------------------------------|
D|---------------------------2---------------------------------2---|
A|---------------0---0-2-0-2---4-----------------0---0-2-0-3-4-----|
E|---0-2-2-3-3-4-----------------0---0-2-2-3-3-4-----------------0-|
   1 + 2 + 3 + 4 + 1 + 2 + 3 + 4 + 1 + 2 + 3 + 4 + 1 + 2 + 3 + 4 +

4:32
G|---------------------------------|
D|---------------------------4-----|
A|---------------------0-2-4---4---|
E|---2-2---3-3---5-5-------------0-|
   1 + 2 + 3 + 4 + 1 + 2 + 3 + 4 +

G|-----------------------------------------------------------------|
D|-----------------------------2-----------------------4---2-------|
A|---------------0---0-2-2-3-4-------------------0---4---4---4-2---|
E|---0-2-2-3-3-4-----------------0---0-2-2-3-3-4-----------------0-|
   1 + 2 + 3 + 4 + 1 + 2 + 3 + 4 + 1 + 2 + 3 + 4 + 1 + 2 + 3 + 4 +


G|-----------------------------------------------------------------|
D|-----------------------------2-----------------------------------|
A|---------------0---0-2-2-3-4-----------------2---------------2---|
E|---0-2-2-3-3-4-----------------0---------2-4---0---------2-4---0-|
   1 + 2 + 3 + 4 + 1 + 2 + 3 + 4 + 1 + 2 + 3 + 4 + 1 + 2 + 3 + 4 +

G|-----------------------------------------------------------------|
D|-----------------------------------------------------------------|
A|-----------------------------------------------------------------|
E|---------------0---------0-------------------------------------0-|
   1 + 2 + 3 + 4 + 1 + 2 + 3 + 4 + 1 + 2 + 3 + 4 + 1 + 2 + 3 + 4 +
Tabbed by Dave Vucko

            
            
Suggest correction
Creating personal tab
Creating personal tab
You can edit any tab online and save it as your Personal.

You can edit, replace or remove any tab part or add personal notes – all changes will be seen only by you.

Personal tabs can be accessed anytime from any device, even offline.
Learn more »
comments
print report bad tab
guest
You may want to rate the tab now too:
select rating
Wanna post a correction for this tab? Suggest correction