Oops, an error
Loading. Please wait.

Time Stand Still bass

version 2
version 2

Whole song

Interactive

by Rush
474 views 1 this week
no commentswrite comment
1 2 3 4 5
2 more votes to show rating
add to favorites
×
Save as Personal and add changes to this tab that will be seen only by you. Learn more ›
×
You can save this tab as Personal to edit and correct it or add notes. All changes will be seen only by you. Learn more »
launch autoscroll
font size
0
reset
guitar tuner
edit
Autoscroll
slow
fast
+/-
esc
set tempo
stop
Author
G|-------------------------------------------------------------------------------------|
D|-------------------------------------------------------------------------------------|
A|---------------------0---0---2-------------/-0---0---2-----------------------0---0---|
E|-------------------------------------------------------------------------------------|
   1 + 2 + 3 + 4 + 5 + 6 + 7 + 1 + 2 + 3 + 4 + 5 + 6 + 7 + 1 + 2 + 3 + 4 + 5 + 6 + 7 +

0:08
G|---------------------------------------------------------------------------------|
D|---------------------------------------------------------------------2-------2---|
A|-4-4-4-4-4-4-4-4-4-4-4-4-4-4-4---------------------------------------------------|
E|-------------------------------4-5-5-5-5-5-5-5-5-5-5-5-5-5-4-5-4-0-0---0-0-0---0-|
   1 + 2 + 3 + 4 + 1 + 2 + 3 + 4 + 1 + 2 + 3 + 4 + 1 + 2 + 3 + 4 + 1 + 2 + 3 + 4 + 

G|---------------------------------------------------------------------------------|
D|---------------------------------2-1---2-1---1---------7-----7-------------------|
A|---------0-2-4---2-2-2-2-2-2-2-2-----2-----2---2-----------7---7---------------3-|
E|-0-0-2-4-------4---------------------------------5-5-5-----------7-----7---5-7---|
   1 + 2 + 3 + 4 + 1 + 2 + 3 + 4 + 1 + 2 + 3 + 4 + 1 + 2 + 3 + 4 + 1 + 2 + 3 + 4 +

G|---------------------------------------------------------------------------------|
D|---------------------------------------------------------------------2-------2---|
A|-4-4-4-4-4-4-4-4-4-4-4-4-4-4-4---------------------------------------------------|
E|-------------------------------4-5-5-5-5-5-5-5-5-5-5-5-5-5-4-5-4-0-0---0-0-0---0-|
   1 + 2 + 3 + 4 + 1 + 2 + 3 + 4 + 1 + 2 + 3 + 4 + 1 + 2 + 3 + 4 + 1 + 2 + 3 + 4 + 

G|---------------------------------------------------------------------------------|
D|---------------------------------2-1---4---2-1---------7-----7-----------------4-|
A|---------0-2-4---2-2-2-2-2-2-2-2-----2---------4-0---------7---7---9-7-9---7-6---|
E|-0-0-2-4-------4-------------------------------------------------7---------------|
   1 + 2 + 3 + 4 + 1 + 2 + 3 + 4 + 1 + 2 + 3 + 4 + 1 + 2 + 3 + 4 + 1 + 2 + 3 + 4 +

0:43
G|---------------------------9-11h13-----------11-9-11--h13---11--------|
D|----------------------------------------------------------------------|
A|-0--------------------------------------------------------------------|
E|-----------------0----------------------------------------------------|
   1 + 2 + 3 + 4 + 1 + 2 + 3 + 4  +  1 + 2 + 3 +  4 +  1 +  2 + 3 + 4 + 

G|----------h13-11-------------9-11h13-----------11-9-11-11-11-11-13-11---------|
D|-----------------9------------------------------------------------------14-11-|
A|-0----------------------------------------------------------------------------|
E|-------------------0----------------------------------------------------------|
   1 + 2 + 3 +  4  + 1 + 2 + 3 + 4  +  1 + 2 + 3 +  4 +  1  +  2  +  3  + 4  + 

G|-----------h13-11-------------9-11h13-----------11-9-11-11-13-11-----------|
D|------------------9--------------------------------------------------------|
A|-0-------------------------------------------------------------------------|
E|--------------------0------------------------------------------------------|
   1  + 2 + 3 +  4  + 1 + 2 + 3 + 4  +  1 + 2 + 3 +  4 +  1  +  2  + 3 + 4 + 

G|---------------------------------------------------------|
D|---------------------------------------------------------|
A|-2-------------------0---4---2-----------------/-0---0---|
E|---------------------------------------------------------|
   1 + 2 + 3 + 4 + 5 + 6 + 7 + 1 + 2 + 3 + 4 + 5 + 6 + 7 + 

1:10
G|-----------------------------------------------------------------|
D|-2-2-2-2-2-2-2---------------------------------------------------|
A|---------------2-4-4-4-4-4-4-4-4-2-2-2-2-2-2-2-2-2-2-2-2---4-2-4-|
E|-----------------------------------------------------------------|
   1 + 2 + 3 + 4 + 1 + 2 + 3 + 4 + 1 + 2 + 3 + 4 + 1 + 2 + 3 + 4 + 

G|------------------------------------------------------------------|
D|-----------------------------------------------222-4-6-4---2-242--|
A|----------------------------------------------------------------4-|
E|-5-5-5-5-5-5-5-5-2-2-2-2-2-2-2-2-0-0-0-0-0-0-0--------------------|
   1 + 2 + 3 + 4 + 1 + 2 + 3 + 4 + 1 + 2 + 3 + 4 + 1 + 2 + 3 + 4 + 

1:24
G|-----------------------------------------------------------------|
D|-----------------------------------2---2---4-2-----2---2---4-2---|
A|-5-----5---545-4-0-----0---2-420-----2---------4-----2---------4-|
E|---------------------------------0---------------0---------------|
   1 + 2 + 3 + 4 + 1 + 2 + 3 + 4 + 1 + 2 + 3 + 4 + 1 + 2 + 3 + 4 + 

G|-----------------------------------------------------------------------------------------|
D|-----------------------------------------------------------------------------------------|
A|-5---------------0---------0-0---2-----------------/-0---0---2-------------------0---0---|
E|-----------------------------------------------------------------------------------------|
   1 + 2 + 3 + 4 + 1 + 2 + 3 + 4 + 1 + 2 + 3 + 4 + 5 + 6 + 7 + 1 + 2 + 3 + 4 + 5 + 6 + 7 +

1:40
G|---------------------------------------------------------------------------------|
D|---------------------------------------------------------------------2-------2---|
A|-4-4-4-4-4-4-4-4-4-4-4-4-4-2-4-2-------------------------------------------------|
E|---------------------------------5-5-5-5-5-5-5-5-5-5-5-5-5-4-5-4-0-0---0-0-0---0-|
   1 + 2 + 3 + 4 + 1 + 2 + 3 + 4 + 1 + 2 + 3 + 4 + 1 + 2 + 3 + 4 + 1 + 2 + 3 + 4 + 

G|-------------------------------------------------|
D|---------------------------------2-1---2-1---1---|
A|---------0-2-4---2-2-2-2-2-2-2-2-----2-----2---2-|
E|-0-0-2-4-------4---------------------------------|
   1 + 2 + 3 + 4 + 1 + 2 + 3 + 4 + 1 + 2 + 3 + 4 + 

G|---------------------------------------------------------------------------------|
D|---------------------------------------------------------------------2-------2---|
A|-4-4---4-4-2-2-2-4-4---4-4-2-2-4-------------------------------------------------|
E|---------------------------------5-5---5-5-4-4-4-5-5---5-5-4-4-5-0-0---0-0-0---0-|
   1 + 2 + 3 + 4 + 1 + 2 + 3 + 4 + 1 + 2 + 3 + 4 + 1 + 2 + 3 + 4 + 1 + 2 + 3 + 4 + 

G|-------------------------------------------1-------------------------------------|
D|---------------------------------2-1---221---4-2-------7-----7-------------------|
A|---------0-2-4---2-2-2-2-2-2-2-2-----2-----------0---------7---7---9---999-7-6-4-|
E|-0-0-2-4-------4-------------------------------------------------7---7-----------|
   1 + 2 + 3 + 4 + 1 + 2 + 3 + 4 + 1 + 2 + 3 + 4 + 1 + 2 + 3 + 4 + 1 + 2 + 3 + 4 +

2:11
G|---------------------------9-11h13-----------11-9-11--h13---11--------|
D|----------------------------------------------------------------------|
A|-0--------------------------------------------------------------------|
E|-----------------0----------------------------------------------------|
   1 + 2 + 3 + 4 + 1 + 2 + 3 + 4  +  1 + 2 + 3 +  4 +  1 +  2 + 3 + 4 + 

G|-----------h13-11-------------9-11h13-----------11-9-11-11-13-11-----------|
D|------------------9--------------------------------------------------------|
A|-0-------------------------------------------------------------------------|
E|--------------------0------------------------------------------------------|
   1  + 2 + 3 +  4  + 1 + 2 + 3 + 4  +  1 + 2 + 3 +  4 +  1  +  2  + 3 + 4 + 

G|-----------------------------|
D|-----------------------------|
A|-2-------------------0---0-0-|
E|-----------------------------|
   1 + 2 + 3 + 4 + 5 + 6 + 7 + 

2:29
G|-----------------------------------------------------------------|
D|-2-2-2-2-2-2-2---------------------------------------------------|
A|---------------2-4-4-4-4-4-4-4-4-2-2-2-2-2-2-2-2-2-4-6-4---2-4-2-|
E|-----------------------------------------------------------------|
   1 + 2 + 3 + 4 + 1 + 2 + 3 + 4 + 1 + 2 + 3 + 4 + 1 + 2 + 3 + 4 + 

G|------------------------------------------9--11-13-11---9---8-9-8---------------------|
D|------------------------------------------------------------------11-9-11-9-7-6-7-6-4-|
A|--------------------------------------------------------------------------------------|
E|-5-5-5-5-5-5-5-5-2-2-2-2-2-2-2-2-0-0-0-0-0--------------------------------------------|
   1 + 2 + 3 + 4 + 1 + 2 + 3 + 4 + 1 + 2 + 3 + 4  +  1  e + a 2 e + a  3 e  + a 4 e + a

G|-----------------------------------------------------------------|
D|-2-2-2-2-2-2-2---------------------------------------------------|
A|---------------2-4---4-4-4-4-4-4-2-----2-2-2-2-2-2-4-6-4---2-242-|
E|-----------------------------------------------------------------|
   1 + 2 + 3 + 4 + 1 + 2 + 3 + 4 + 1 + 2 + 3 + 4 + 1 + 2 + 3 + 4 + 

G|-----------------------------------------------------------------|
D|---------------2-4-4-4-4-4-4-4---2-2-2-222-2-2-222--4446-44-2--4-|
A|-------------------------------4---------------------------------|
E|-5-5-5-5-5-5-5---------------------------------------------------|
   1 + 2 + 3 + 4 + 1 + 2 + 3 + 4 + 1 + 2 + 3 + 4 + 1 + 2 + 3 + 4 + 

2:57
G|-----------------------------------------------------------------|
D|-----------------------------------2---2---4-2-----2---2---4-2---|
A|-5-----5---545-4-0-----0---2-420-----2---------4-----2--------4--|
E|---------------------------------0---------------0---------------|
   1 + 2 + 3 + 4 + 1 + 2 + 3 + 4 + 1 + 2 + 3 + 4 + 1 + 2 + 3 + 4 + 

G|-----------------------------------------------------------------------------------------|
D|-----------------------------------------------------------------------------------------|
A|-5---------------0---------0-0---2-------------------0---4---2-----------------/-0---0---|
E|-----------------------------------------------------------------------------------------|
   1 + 2 + 3 + 4 + 1 + 2 + 3 + 4 + 1 + 2 + 3 + 4 + 5 + 6 + 7 + 1 + 2 + 3 + 4 + 5 + 6 + 7 +

3:12
G|---------------------------------------------------------|
D|-------------------------------------------------------2-|
A|-4-4-4-4-4-4-4-4-4-4-4-2-4-2-----------------------------|
E|-----------------------------5-5-5-5-5-5-5-5-5-4-5-4-5---|
   1 + 2 + 3 + 4 + 5 + 6 + 7 + 1 + 2 + 3 + 4 + 5 + 6 + 7 + 

G|---------------------------------------------------------|
D|---------------------------------------------------------|
A|-4-4-4-4-4-4-4-4-4-4-4-2-4-2---------------------------4-|
E|-----------------------------5-5-5-5-5-5-5-5-5-5-5-4-5---|
   1 + 2 + 3 + 4 + 5 + 6 + 7 + 1 + 2 + 3 + 4 + 5 + 6 + 7 + 

G|---------------------------------------------------------|
D|-----------------------------------------------4-4---4---|
A|-------------------------2-4-2-2-2-2-2-2-2-2-2-----2---2-|
E|-0-0-0-0-0-0-0-0-0-0-2-4---------------------------------|
   1 + 2 + 3 + 4 + 5 + 6 + 7 + 1 + 2 + 3 + 4 + 5 + 6 + 7 + 

G|---------------------------------------------------------|
D|---------------------------------------------------------|
A|-4-4-4-4-4-4-4-4-4-2-4-2-4-2-----------------------------|
E|-----------------------------5-5-5-5-5-5-5-5-5-5-5-4-5-4-|
   1 + 2 + 3 + 4 + 5 + 6 + 7 + 1 + 2 + 3 + 4 + 5 + 6 + 7 + 

G|---------------------------------------------------------|
D|-----------2---2-----------------------------------------|
A|---------------------------0-2-2-2-2-2-2-2-2-2-2-2-4-2-4-|
E|-0-0-0-0-0---0---0-0-0-2-4-------------------------------|
   1 + 2 + 3 + 4 + 5 + 6 + 7 + 1 + 2 + 3 + 4 + 5 + 6 + 7 + 

3:44
G|---------------------------------|
D|---7---7-----7-------------------|
A|-0---0-----77--77--9---9---------|
E|-----------------7---7-----7-7-7-|
   1 + 2 + 3 + 4 + 1 + 2 + 3 + 4 + 

G|---------------------------9-11h13-----------11-9-11--h13---11--------|
D|----------------------------------------------------------------------|
A|-0--------------------------------------------------------------------|
E|-----------------0----------------------------------------------------|
   1 + 2 + 3 + 4 + 1 + 2 + 3 + 4  +  1 + 2 + 3 +  4 +  1 +  2 + 3 + 4 + 

G|-----------h13-11-------------9-11h13-----------11-9-11-11-13-11-----------|
D|------------------9--------------------------------------------------------|
A|-0-------------------------------------------------------------------------|
E|--------------------0------------------------------------------------------|
   1  + 2 + 3 +  4  + 1 + 2 + 3 + 4  +  1 + 2 + 3 +  4 +  1  +  2  + 3 + 4 + 

4:01
G|---------------------------------------------------------|
D|---------------------------------------------------------|
A|---------------------------------------------------------|
E|-2-2-2-2-2-2-2-2-2-2-2-2-2-2-4-4-4-4-4-4-4-4-4-4-4-4-4-4-|
   1 + 2 + 3 + 4 + 5 + 6 + 7 + 1 + 2 + 3 + 4 + 5 + 6 + 7 + 

G|---------------------------------------------------------|
D|---------------------------------------------------------|
A|-----------------------------2-2-2-2-2-2-2-2-2-----------|
E|-5-5-5-5-5-5-5-5-5-5-5-5-5-5-----------------------------|
   1 + 2 + 3 + 4 + 5 + 6 + 7 + 1 + 2 + 3 + 4 + 5 + 6 + 7 + 

4:13
G|-----------------------------------------------------------------|
D|-2-2-2-2-2-2-2-2-------------------------------------------------|
A|-----------------4---4---4---4---2-2-2-2-2-2-2-2-2-4-6-4---2-2-4-|
E|-----------------------------------------------------------------|
   1 + 2 + 3 + 4 + 1 + 2 + 3 + 4 + 1 + 2 + 3 + 4 + 1 + 2 + 3 + 4 + 

G|-----------------------------------------------------------------|
D|---------------------------------------222-4-2---2---2-222-4-2-4-|
A|-----------------------------------------------4-----------------|
E|-5-5-5-5-5-5-5-5-2-2-2-2-2-2-2-2-0---0-------------0-------------|
   1 + 2 + 3 + 4 + 1 + 2 + 3 + 4 + 1 + 2 + 3 + 4 + 1 + 2 + 3 + 4 + 

G|-----------------------------------------------444-6---8---6-464--|
D|-2---2-2-2-2-2-2------------------------------------------------7-|
A|-----------------4---4-4-4-4-4-4-2-2---2-2-2-2--------------------|
E|------------------------------------------------------------------|
   1 + 2 + 3 + 4 + 1 + 2 + 3 + 4 + 1 + 2 + 3 + 4 + 1 + 2 + 3 + 4 + 

G|-------------------------------------------------11-9-11---6-4-6-|
D|-----------------4---4-4-4-4-4-4-2-2-2-2-2-2-2-2-----------------|
A|-----------------------------------------------------------------|
E|-5---5-5-5-5-5-5-------------------------------------------------|
   1 + 2 + 3 + 4 + 1 + 2 + 3 + 4 + 1 + 2 + 3 + 4 + triplet 3 + 4 + 

4:41
G|-----------------------------------------------------------------|
D|-----------------------------------2---2---4-242---2---4-7-642-4-|
A|-5-----5---4-5-4-0-----0---2-4-2----------------4----------------|
E|---------------------------------0---0-----------0---0-----------|
   1 + 2 + 3 + 4 + 1 + 2 + 3 + 4 + 1 + 2 + 3 + 4 + 1 + 2 + 3 + 4 + 

G|-------------------------------------------6-4-------------------|
D|-----------------------------------22--2-------7-67-6--4---------|
A|-5-----5---445-4-0-000-0---2-4-2---------------------7-----7-4-7-|
E|---------------------------------0---0---------------------------|
   1 + 2 + 3 + 4 + 1 + 2 + 3 + 4 + 1 + 2 + 3 + 4 + 1 + 2 + 3 + 4 + 

G|-----------------------------------------------------------------------------------------|
D|-----------------------------------------------------------------------------------------|
A|-5---------------0---------------2-------------------0---4---2---------------------------|
E|-----------------------------------------------------------------------------------------|
   1 + 2 + 3 + 4 + 1 + 2 + 3 + 4 + 1 + 2 + 3 + 4 + 5 + 6 + 7 + 1 + 2 + 3 + 4 + 5 + 6 + 7 +

Suggest correction
Creating personal tab
Creating personal tab
You can edit any tab online and save it as your Personal.

You can edit, replace or remove any tab part or add personal notes – all changes will be seen only by you.

Personal tabs can be accessed anytime from any device, even offline.
Learn more »
Give kudos to tab author, rate the tab!
1 2 3 4 5
comments
print report bad tab
guest
You may want to rate the tab now too:
select rating
Wanna post a correction for this tab? Suggest correction