Oops, an error
Loading. Please wait.

Tom Sawyer Bass Tab

version 1
version 1

Whole song

Interactive

by Rush
198,268 views 363 this week
26 commentsread comments
1 2 3 4 5
excellent!
x 39
add to favorites
launch autoscroll
font size
0
reset
guitar tuner
Autoscroll
slow
fast
+/-
esc
set tempo
stop
Help us to improve Ultimate-Guitar.com Take our survey!
×
Difficulty
intermediate
Original Tab by: Macon N. Pegram
New contributor: Teh D Bot http://profile.ultimate-guitar.com/Teh+D+Bot/
Original Tab at bottom

[Intro]

G|-----------------------------------------------------------------|
D|-----------------------------------------------------------------|
A|-----------------------------------------------------------------|
E|-0---------------------------------------------------------------|
   1 + 2 + 3 + 4 + 1 + 2 + 3 + 4 + 1 + 2 + 3 + 4 + 1 + 2 + 3 + 4 +

G|-----------------------------------------------------------------|
D|-----------------------------------------------------------------|
A|-----------------------------------------------------------------|
E|-----------------------------------------------------------------|
   1 + 2 + 3 + 4 + 1 + 2 + 3 + 4 + 1 + 2 + 3 + 4 + 1 + 2 + 3 + 4 +


[0:10]

G|------------------------------------------------------------------|
D|o-----------------------------------------------------------------|
A|o---------7-------------------------------5-----------------------|
E|--0-0---0-------------------------0-0---0-------------------------|
    1 + 2 + 3 + 4 + 1 + 2 + 3 + 4 + 1 + 2 + 3 + 4 + 1 + 2 + 3 + 4 +

G|------------------------------------------------------------------|
D|---------7-------------------------------10----------------------o|
A|-----------------------------------------------------------------o|
E|-0-0---0-------------------------0-0---0--------------------------|
   1 + 2 + 3 + 4 + 1 + 2 + 3 + 4 + 1 + 2 + 3 + 4 + 1 + 2 + 3 + 4 +


[0:32]

G|---------------------------------|
D|-10----9-----7-----10----9-9-7-7-|
A|---------------------------------|
E|---------------------------------|
   1 + 2 + 3 + 4 + 1 + 2 + 3 + 4 + 


[0:35]

G|-----------------------------------------7---------7-----7---7---|
D|-------------------------4h5-4---------07------------------------|
A|---------7-----------------------5-5-----------5-------5---5-----|
E|-0-0---0-------0---0---0-----------------------------------------|
   1 + 2 + 3 + 4 + 1 + 2 + 3 + 4 + 1 + 2 + 3 + 4 + 1 + 2 + 3 + 4 +

G|---------------------------------5-5-5-4-------------------------|
D|---------7---------7-----7---7-7-------------7-7-7-5-----4-4-----|
A|-0-0---07------0-------0---0---------------------------------7---|
E|-----------------------------------------------------------------|
   1 + 2 + 3 + 4 + 1 + 2 + 3 + 4 + 1 + 2 + 3 + 4 + 1 + 2 + 3 + 4 +


[0:46]

G|-----------------------------------------------------------------|
D|---------------------------------2-------------------------------|
A|---------------------------------------3-------3-2-----0---------|
E|-0-----2-----0-2-3-----5-r-5-3-5-------------3---------------3-2-|
   1 + 2 + 3 + 4 + 1 + 2 + 3 + 4 + 1 + 2 + 3 + 4 + 1 + 2 + 3 + 4 +

G|-------------------------------------------------------------------|
D|o---------------------------------2-------------------------------o|
A|o---------------------------------------3---------2-----0---0-----o|
E|--0-----2---------3-----5-------------------------------------3-2--|
    1 + 2 + 3 + 4 + 1 + 2 + 3 + 4 + 1 + 2 + 3 + 4 + 1 + 2 + 3 + 4 +

G|-----------------------------------------------------------------|
D|---------------------------------2-------------------------------|
A|---------------------------------------3-------3-2---2-0-----0---|
E|-0-----2-2---0-2-3-----5-r-5-3-5-------------3-----3-------------|
   1 + 2 + 3 + 4 + 1 + 2 + 3 + 4 + 1 + 2 + 3 + 4 + 1 + 2 + 3 + 4 +


[1:07]

G|-----------------------------------------------------------------|
D|-----------------------------------------------------------------|
A|-2-------------------------------2-------------------------------|
E|-----------------------------------------------------------------|
   1 + 2 + 3 + 4 + 1 + 2 + 3 + 4 + 1 + 2 + 3 + 4 + 1 + 2 + 3 + 4 +

G|-----------------------------------------------------------------|
D|-----------------------------------------------------------------|
A|-----------------------------2-----------------------------------|
E|-5-------5-------3---3---------------------------5---5-----------|
   1 + 2 + 3 + 4 + 1 + 2 + 3 + 4 + 1 + 2 + 3 + 4 + 1 + 2 + 3 + 4 +

G|-----------------------------------------------------------------|
D|-----------------------------------------------------------------|
A|-----------------------------------------------------------------|
E|-3-------3-------5---------------0-------------------------------|
   1 + 2 + 3 + 4 + 1 + 2 + 3 + 4 + 1 + 2 + 3 + 4 + 1 + 2 + 3 + 4 +


[Ring]


[1:32]

G|---------------------------------------------------------|
D|---------------------------------------------------------|
A|---------------------------------------------------------|
E|-0-------------------------------------------------------|
   1 + 2 + 3 + 4 + 5 + 6 + 7 + 1 + 2 + 3 + 4 + 5 + 6 + 7 +

G|---------------------------------------------------------|
D|---------------------------------------------------------|
A|---------------------------------------------------------|
E|-----------------------------0---0---0-----0-------------|
   1 + 2 + 3 + 4 + 5 + 6 + 7 + 1 + 2 + 3 + 4 + 5 + 6 + 7 +


[1:42]

G|-----------------------------------------------------------|
D|o---------------------------------------------------------o|
A|o---------------------------------------------------------o|
E|--0---0---0-----2-----2-------0---0---0-----2-----2--------|
    1 + 2 + 3 + 4 + 5 + 6 + 7 + 1 + 2 + 3 + 4 + 5 + 6 + 7 +


[1:52]

G|---------------------------------------------------------|
D|---------------------------------------------------------|
A|-7---7---7-----7-----7---7---7---7---7-----7-------------|
E|---------------------------------------------------------|
   1 + 2 + 3 + 4 + 5 + 6 + 7 + 1 + 2 + 3 + 4 + 5 + 6 + 7 +


[1:56]

G|----------------------------------------------------------|
D|o-7---6---------7-----6-------7---6---------7-----6-------|
A|o---9---7-5---------9---7-5-----9---7-5---------9---7-5---|
E|------------7-7-------------7-----------7---------------7-|
    1 + 2 + 3 + 4 + 5 + 6 + 7 + 1 + 2 + 3 + 4 + 5 + 6 + 7 +

G|----------------------------------------------------------|
D|-7---6---------7-----6-------7---6-----------------------o|
A|---9---7-5---------9---7-5-----9---7-5---------------5---o|
E|-----------7-7-------------7-----------7-----5---7--------|
   1 + 2 + 3 + 4 + 5 + 6 + 7 + 1 + 2 + 3 + 4 + 5 + 6 + 7 +

G|---------------------------------------------------------|
D|-7---6---------7-----6-------7---6---------7-----6-------|
A|---9---7-5---------9---7-5-----9---7-5---------9---7-5---|
E|-----------7-7-------------7-----------7---------------7-|
   1 + 2 + 3 + 4 + 5 + 6 + 7 + 1 + 2 + 3 + 4 + 5 + 6 + 7 +

G|-7---6---------7-----6-------7---6---------7-----6-------|
D|---9---7-5---------9---7-5-----9---7-5---------9---7-5---|
A|-----------7-7-------------7-----------7---------------7-|
E|---------------------------------------------------------|
   1 + 2 + 3 + 4 + 5 + 6 + 7 + 1 + 2 + 3 + 4 + 5 + 6 + 7 +

G|-------------------------------------------------------------|
D|-7---6---------7-----6-------7---6---------------------------|
A|---9---7-5---------9---7-5-----9---7-5---------------5---7---|
E|-----------7-7-------------7-----------7-7---5---7-----------|
   1 + 2 + 3 + 4 + 5 + 6 + 7 + 1 + 2 + 3 + 4 + 5 + 6 + 7 + 8 + 


[2:31]

G|-----------------------------------------------------------------|
D|-----------------------------------------------------------------|
A|---------7-------------------------------5-----------------------|
E|-0-0---0-------------------------0-0---0-------------------------|
   1 + 2 + 3 + 4 + 1 + 2 + 3 + 4 + 1 + 2 + 3 + 4 + 1 + 2 + 3 + 4 +

G|-----------------------------------------------------------------|
D|---------7-------------------------------10----------------------|
A|-----------------0--0--0---0-0-----------------------------------|
E|-0-0---0-------------------------0-0-0-0---------8-----7-----5-5-|
   1 + 2 + 3 + 4 + 1 + 2 + 3 + 4 + 1 + 2 + 3 + 4 + 1 + 2 + 3 + 4 +


[2:42]

G|-----------------------------------------------------------------|
D|-----------------------------------------------------------------|
A|---------7-------------------------------5-----------------------|
E|-0-0---0-------------------------0-0---0-------------------------|
   1 + 2 + 3 + 4 + 1 + 2 + 3 + 4 + 1 + 2 + 3 + 4 + 1 + 2 + 3 + 4 +

G|--------------------------------------------------------------------|
D|---------7-------------------------------10---------------10-10-----|
A|-------------------------------------------------------10-----------|
E|-0-0---0-------------------------0-0---0------------------------8-8-|
   1 + 2 + 3 + 4 + 1 + 2 + 3 + 4 + 1 + 2 + 3 + 4 + 1 + 2 +  3  +  4 +

G|------------------------------------|
D|-10----9-----7-----10-10-10-9-9-7-7-|
A|------------------------------------|
E|------------------------------------|
   1 + 2 + 3 + 4 + 1 +  2  +  3 + 4 + 


[2:55]

G|-----------------------------------------7---7-------7---7---7---|
D|-------------------------4h5-4h5-------07------------------------|
A|---------7-----------------------5-5-----------5---5---5---5-----|
E|-0-0---0-------0---0---0-----------------------------------------|
   1 + 2 + 3 + 4 + 1 + 2 + 3 + 4 + 1 + 2 + 3 + 4 + 1 + 2 + 3 + 4 +

G|---------------------------------5-----4-------------------------|
D|---------7---7-------7---7---7-7-------------7-----5-----4-4-----|
A|-0-0---07------0---0---0---0---------------------------------7---|
E|-----------------------------------------------------------------|
   1 + 2 + 3 + 4 + 1 + 2 + 3 + 4 + 1 + 2 + 3 + 4 + 1 + 2 + 3 + 4 +


[3:07]

G|-----------------------------------------------------------------|
D|---------------------------------2-------------------------------|
A|---------------------------------------3-------3-2-----0---0-----|
E|-0-----2-----0-2-3-----5---5-3-5-------------3---------------3-2-|
   1 + 2 + 3 + 4 + 1 + 2 + 3 + 4 + 1 + 2 + 3 + 4 + 1 + 2 + 3 + 4 +

G|-------------------------------------------------------------------|
D|o---------------------------------2-------------------------------o|
A|o---------------------------------------3---------2-----0---------o|
E|--0-----2-2-------3-----5-------------------------------------3-2--|
    1 + 2 + 3 + 4 + 1 + 2 + 3 + 4 + 1 + 2 + 3 + 4 + 1 + 2 + 3 + 4 +

G|-----------------------------------------------------------------|
D|---------------------------------2-------------------------------|
A|---------------------------------------3-------3-2---2-0----0--0-|
E|-0-----2-2---0-2-3-----5---5-3-5-------------3-----3-------------|
   1 + 2 + 3 + 4 + 1 + 2 + 3 + 4 + 1 + 2 + 3 + 4 + 1 + 2 + 3 + 4 +


[3:28]

G|-----------------------------------------------------------------|
D|-----------------------------------------------------------------|
A|-2-------------------------------2-------------------------------|
E|-----------------------------------------------------------------|
   1 + 2 + 3 + 4 + 1 + 2 + 3 + 4 + 1 + 2 + 3 + 4 + 1 + 2 + 3 + 4 +

G|-----------------------------------------------------------------|
D|-----------------------------------------------------------------|
A|-----------------------------2-----------------------------------|
E|-5-------5-------3---3---------------------------5---5-----------|
   1 + 2 + 3 + 4 + 1 + 2 + 3 + 4 + 1 + 2 + 3 + 4 + 1 + 2 + 3 + 4 +

G|-----------------------------------------------------------------|
D|-----------------------------------------------------------------|
A|-----------------------------------------------------------------|
E|-3-------3-------5---------------0-------------------------------|
   1 + 2 + 3 + 4 + 1 + 2 + 3 + 4 + 1 + 2 + 3 + 4 + 1 + 2 + 3 + 4 +


[Ring] 


[3:55]

G|---------------------------------------------------------|
D|---------------------------------------------------------|
A|---------------------------------------------------------|
E|-0---------------------------0---0-----------------------|
   1 + 2 + 3 + 4 + 5 + 6 + 7 + 1 + 2 + 3 + 4 + 5 + 6 + 7 +

G|---------------------------------------------------------|
D|-----------------------------------------------------4---|
A|-------------------------------------------------4-------|
E|-0---0--------------------------------------2------------|
   1 + 2 + 3 + 4 + 5 + 6 + 7 + 1 + 2 + 3 + 4 + 5 + 6 + 7 +


[4:05]

G|---------------------------------------------------------|
D|---------------------------------------------------------|
A|---------------------------------7-------7---------------|
E|-0---0---------2-----2-------0--0----0--0--2-----2-------|
   1 + 2 + 3 + 4 + 5 + 6 + 7 + 1 + 2 + 3 + 4 + 5 + 6 + 7 +

G|---------------------------------------------------------|
D|---------------------------------------------------------|
A|---------------------------------7-------7---------------|
E|-0---0-0-0---0-2-----2-------0--0----0--0--2-----2-------|
   1 + 2 + 3 + 4 + 5 + 6 + 7 + 1 + 2 + 3 + 4 + 5 + 6 + 7 +

G|---------------------------------------------------------|
D|-------------------------4---------------------------4---|
A|---------------------4---------------------------4-------|
E|-0---0---------2-------------0---0---------2-------------|
   1 + 2 + 3 + 4 + 5 + 6 + 7 + 1 + 2 + 3 + 4 + 5 + 6 + 7 +

G|-----------------------------------------------------------|
D|o-------------------------4---------------------------4---o|
A|o-----7-------7-------4-----------7-------7-------4-------o|
E|--0--0----0--0--2-------------0--0----0--0--2--------------|
    1 + 2 + 3 + 4 + 5 + 6 + 7 + 1 + 2 + 3 + 4 + 5 + 6 + 7 + 
comments
print report bad tab
26 comments total. Showing first comments.
+3 reply
ironmaidenrulez 64 wrote on May 31 2006, 08:03 am

could i put mine on here, cuz it don't let me put mine on so mine will be on here.

g|--------------------------------|
d|---------------------7--------10|
a|----7-------5-------------------|
e|00-0----00-0----00-0-----00-0---|

g|----------------------------------------------|
d|---------------------7--------10-10-9-7-10-9-7|
a|----7-------5---------------------------------|
e|00-0----00-0----00-0-----00-0-----------------|

g|------9-------7-----------------------|
d|---------------------7---10-9-7-------|
a|----7-------5-------------------10-9-7|
e|00-0----00-0----00-0------------------|

g|----------------------------------------|what u say about his company is
d|---------------2-2----------------------| what u say about society, catch
a|---------0-2-0----3-33---2-2-0----------|mist, catch the myth, catch the
e|00-2-232-----------------------3-2-0----| mystery, catch the drift."
reapeat again

g|------------------------------------------------------|
d|---------------2-2------------------------------------|
a|---------0-2-0----3-33-------2---0--0-2--2-2-2-2-0----|
e|00-2-232-----------------32--------3---------------0--|

g|-----------------|---|--------| g|-----|
d|7---6--4-7--6-4--repeatX6-----| d|-----|
a|--9--5--3--9-5---repeatX6-----| then do a|----5|
e|------------------------------| e|5-7--|


g|7---6--4-7--6-4--repeatX4-----| d|-------|
d|--9--5--3--9-5---RepeatX4-------------------------|
a|--------------------------------------------------|
e|--------------------------------------------------|

g|-----------------|---|--------| g|-------|
d|7---6--4-7--6-4--repeatX6-----| d|-------|
a|--9--5--3--9-5---repeatX6-----| then do a|----5-7|
e|------------------------------| e|5-7----|

g|--------------------------------|
d|---------------------7--------10|
a|----7-------5-------------------|
e|00-0----00-0----00-0-----00-0---|

g|----------------------------------------------|
d|---------------------7--------10-10-9-7-10-9-7|
a|----7-------5---------------------------------|
e|00-0----00-0----00-0-----00-0-----------------|

g|------9-------7-----------------------|
d|---------------------7---10-9-7-------|
a|----7-------5-------------------10-9-7|
e|00-0----00-0----00-0------------------|

g|--------------------------------------|
d|---------------2-2--------------------|
a|---------0-2-0----3-33---2-2-0--------|
e|00-2-232-----------------------3-2-0--|
reapeat again

g|------------------------------------------------------|
d|---------------2-2------------------------------------|
a|---------0-2-0----3-33-------2---0--0-2--2-2-2-2-0----|
e|00-2-232-----------------32--------3---------------0--|

g|---------------------|
d|---------------------| then it fades out to end of song
a|---------------------|
e|5---7---5---7---5---7|

+2 reply
Salakatara 18 wrote on December 30 2007, 11:55 pm

Although i am not nearly good enough to play this flawlessly, it seems like a good tab.

+1 reply
Jay Awesome 143 wrote on February 2 2008, 02:18 pm

holy crap I never realized there were so many notes.... I just wanted to learn the main riff coz it sounded cool...

I want to post or [tab]
guest
You may want to rate the tab now too:
select rating
Please do not post tabs as comments. Select "correction" instead!