Oops, an error
Loading. Please wait.

Vital Signs tab

version 2
version 2

Whole song

Interactive

by Rush
12,073 views 12 this week
1 commentread comment
1 2 3 4 5
x 6
add to favorites
×
Save as Personal and add changes to this tab that will be seen only by you. Learn more ›
×
You can save this tab as Personal to edit and correct it or add notes. All changes will be seen only by you. Learn more »
launch autoscroll
font size
0
reset
how to read this tab
guitar tuner
backing track
0:00
0:00
edit
Autoscroll
slow
fast
+/-
esc
set tempo
stop
Author
 _________________
| Intro - repeat  |
| with fade in    |
| Cm              |       Bb  Gm  Ab      Ab6
| q   q   q   q   | e e   e   e   e   e   Hw
|-8---8---8---8---|-8-8---6---3---4-|-4---4-----------|-----------------|
|-8---8---8---8---|-8-8---6---3---4-|-4---6-----------|-----------------|
|o8---8---8---8--o|-8-8---7---3---5-|-5---5-----------|-----------------|
|o10--10--10--10-o|-1010--8---5---6-|-6---x-----------|-----------------|
|-----------------|-----------------|-----6-----------|-----------------|
|-----------------|-----------------|-----------------|-----------------|

  Repeat 4 times
      Cm      Ab        Cm                    Ab        Cm
      e       e         e e           e       e         e e       e
|-----8-------4---|-----8-8---------|-8-------4-------|-8-8-------8-----|
|-----8-------4---|-----8-8---------|-8-------4-------|-8-8-------8-----|
|o----8-------5---|-----8-8---------|-8-------5-------|-8-8-------8----o|
|o----10------6---|-----1010--------|-10------6-------|-1010------10---o|
|-----------------|-----------------|-----------------|-----------------|
|-----------------|-----------------|-----------------|-----------------|

              Ab        Cm
      e       e         e e           e e e q   e e q     e e e
|-----8-------4---|-----8-8---------|-----------------|---------|
|-----8-------4---|-----8-8---------|-----------------|---------|
|-----8-------5---|-----8-8---------|-5---------------3---------|
|-----10------6---|-----1010--------|---5---6---------4---------|
|-----------------|-----------------|-----5-----6-----|-----6---|
|-----------------|-----------------|-------------6-8-|---8---8-|

  e e e e e e e e   e e e e e e e e   e e e e e e e e   e e e e e e e e
|-----------------|-----------------|-----------------|-----------------|
|-----------------|-----------------|-----------------|-----------------|
4-----------------|-----------------|o----------------|----------------o|
4-----------------|-----------------|o----------------|----------------o|
|-----------------|-------------6---|-----------------|-----------6-----|
|-6-6-6-6-6-6-6-6-|-6-6-6-6-8-8---6-|-6-6-6-6-6-6-6-6-|-6-6-6-6-8---8-6-|

                 by external interference...
                    Ab    Eb
  e e e e e e e e   e e   e   e   e     e e   e e e e   e e e e e e e e
|-----------------|-4-4-------------|-----------------|-----------------|
|-----------------|-4-4---8---8---8-|---6-------------|-----------------|
|-----------------|-5-5---8---8---8-|---7-6-----------|o----------------|
|-----------------|-6-6---8---8---8-|---8-8-----------|o----------------|
|-----------------|-6-6---6---6---6-|---8-8-----8-----|-----------------|
|-6-6-6-6-6-6-6-6-|-4-4-------------|-----6---8---8-6-|-6-6-6-6-6-6-6-6-|

                    Cm    Bb  G7m Ab      Ab6
  e e e e e e e e   e e   e   e   e   e   Hw
|-----------------|-8-8---6---3---4-|-4---4-----------|-----------------|
|-----------------|-8-8---6---3---4-|-4---6-----------|-----------------|
|----------------o|-8-8---7---3---5-|-5---5-----------|-----------------|
|----------------o|-1010--8---5---6-|-6---x-----------|-----------------|
|-----------6-----|-1010--8---5---6-|-6---6-----------|-----------------|
|-6-6-6-6-8---8-6-|-8-8---6---3---4-|-4---4-----------|-----------------|

  Chorus 1
      Cm                Bb                Bb                Ab
      e q   e           e q   e           e q   e           e q   e
|-----------8-----|-----------6-----|-----------6-----|-----------4-----|
|-----------8-----|-----------6-----|-----------6-----|-----------4-----|
|o----------8-----|-----------7-----|-----------7-----|-----------5-----|
|o----1010--------|-----8-8---------|-----8-8---------|-----6-6---------|
|-----1010--------|-----8-8---------|-----8-8---------|-----6-6---------|
|-----8-8---------|-----6-6---------|-----6-6---------|-----4-4---------|

                   ___________________________________ _____________
                  | ending 1                          | ending 2
      Cm          | Bb    G7m   Ab                    | Bb    G7m
      e q   e     | Q     Q     qw                    | Q     Q
|-----------8-----|-6-----3-----4---|-----------------|-6-----3-----|
|-----------8-----|-6-----3-----4---|-----------------|-6-----3-----|
|-----------8-----|-7-----3-----5---|----------------o3-7-----3-----|
|-----1010--------|-8-----3-----6---|----------------o4-8-----3-----|
|-----1010--------|-8-----5-----6---|-----------------|-8-----5-----|
|-----8--8--------|-7-----3-----4---|-----------------|-6-----3-----|

__________________________________________________
                                                  | Repeat 4 times
  Ab    Ab6     Abmaj7                            |     Cm      Ab
  Q     Q       ww                                |     e       e
|-4-----4-----|-3---------------|-----------------|-----8-------4---|
|-4-----6-----|-4---------------|-----------------|-----8-------4---|
|-5-----5-----4-5---------------|----------------o|o----8-------5---|
|-6-----x-----4-5---------------|----------------o|o----10------6---|
|-6-----6-----|-x---------------|-----------------|-----------------|
|-4-----4-----|-4---------------|-----------------|-----------------|

                    (*-single repeat delay, #-delay off)
      Cm                    Ab        Cm        #               Ab
      e e           e       e         e e       e       e       e
|-----8-8---------|-8---*---4---*---|-8-8-*-*---8-----|-8---*---4---*---|
|-----8-8---------|-8---*---4---*---|-8-8-*-*---8-----|-8---*---4---*---|
|-----8-8---------|-8---*---5---*---|-8-8-*-*---8----o|-8---*---5---*---|
|-----1010--------|-10--*---6---*---|-1010*-*---10---o|-10--*---6---*---|
|-----------------|-----------------|-----------------|-----------------|
|-----------------|-----------------|-----------------|-----------------|

                              Repeat 4 times
                              Bb
  e e e q   e e q     e e e   q   q   q   q     q   Q     e e e
|-----------------|---------|-----6-------6---|-----6-----------|
|-----------------|---------|-----6-------6---|-----6-----------|
|-5---------------2---------4o----7-------7---|-----7----------o|
|---5---6---------4---------4o----8-------8---|-----8----------o|
|-----6-----6-----|-----6---|-8-------8-------|-8-----------6---|
|-------------6-8-|---8---8-|-6-------6-------|-6---------8---8-|

  Cm    Bb      Ab                    Bb
  e e   e   e   e   q   e   e e e e   q   q   q   q     q   Q     e e e
|-8-8---6---6---4-|-4---4-----------|-----6-------6---|-----6-----------|
|-8-8---6---6---4-|-4---4-----------|-----6-------6---|-----6-----------|
|-8-8---7---7---5-|-5---5-----------|o----7-------7---|-----7----------o|
|-1010--8---8---6-|-6---6-----------|o----8-------8---|-----8----------o|
|-1010--8---8---6-|-6---6-----6-8---|-8-------8-------|-8-----------6---|
|-8-8---6---6---4-|-4---4---8-----6-|-6-------6-------|-6---------8---8-|

  Cm    Bb  G7m Ab      Ab6
  e e   e   e   e   e   Hw
|-8-8---6---3---4-|-4---4-----------|-----------------|
|-8-8---6---3---4-|-4---6-----------|-----------------|
|-8-8---7---3---5-|-5---5-----------|-----------------|
|-1010--8---3---6-|-5---x-----------|-----------------|
|-1010--8---5---6-|-6---6-----------|-----------------|
|-8-8---6---3---4-|-4---4-----------|-----------------|

  Chorus 2
      Cm                Bb                Bb                Ab
      e q   e           e q   e           e q   e           e q   e e
|-----------8-----|-----------------|-----------6-----|-----------------|
|-----------8-----|-----------------|-----------6-----|-----------------|
|o----------8-----|-----------------|-----------7-----|-----------------|
|o----1010--------|-----8-8---8-----|-----8-8---------|-----6-6---6-6---|
|-----1010--------|-----8-8---8-----|-----8-8---------|-----6-6---6-6---|
|-----8-8---------|-----6-6---6-----|-----6-6---------|-----4-4---4-4---|

                   ___________________________________ _____________
                  | ending 1                          | ending 2
      Cm          | Bb    G7m   Ab                    | Bb    G7m
      e q   e     | Q     Q     qw                    | Q     Q
|-----------8-----|-6-----3-----4---|-----------------|-6-----3-----|
|-----------8-----|-6-----3-----4---|-----------------|-6-----3-----|
|-----------8-----|-7-----3-----5---|----------------o3-7-----3-----|
|-----1010--------|-8-----3-----6---|----------------o4-8-----3-----|
|-----1010--------|-8-----5-----6---|-----------------|-8-----5-----|
|-----8--8--------|-7-----3-----4---|-----------------|-6-----3-----|

__________________________________________________
                                                  |
  Ab    Ab6     Abmaj7                            |
  Q     Q       ww                                |
|-4-----4-----|-3---------------|-----------------|
|-4-----6-----|-4---------------|-----------------|
|-5-----5-----4-5---------------|----------------o|
|-6-----x-----4-5---------------|----------------o|
|-6-----6-----|-x---------------|-----------------|
|-4-----4-----|-4---------------|-----------------|


Guitar tacet for 8 bars (bass solo)


  Repeat 3 times
  Cm                Bb                Abmaj7
  w                 w                 ww
|-8---------------|-6---------------|-3---------------|-----------------|
|-8---------------|-6---------------|-4---------------|-----------------|
|o8---------------|-7---------------|-5---------------|----------------o|
|o10--------------|-8---------------|-x---------------|----------------o|
|-10--------------|-8---------------|-6---------------|-----------------|
|-8---------------|-6---------------|-4---------------|-----------------|

  Cm                Bb                Abmaj7
  w                 w                 w                 h       h
|-8---------------|-6---------------|-3---------------|-3-------3-------|
|-8---------------|-6---------------|-4---------------|-4-------4-------|
|-8---------------|-7---------------|-5---------------|-5-------5-------|
|-10--------------|-8---------------|-x---------------|-x-------x-------|
|-10--------------|-8---------------|-6---------------|-6-------6-------|
|-8---------------|-6---------------|-4---------------|-4-------4-------|

  Cm                Bb                Ab                            Bb
  h       h         h       h         h       h         q   q   q   q
|-8-------8-------|-6-------6-------|-4-------4-------|-4---4---4---6---|
|-8-------8-------|-6-------6-------|-4-------4-------|-4---4---4---6---|
|o8-------8-------|-7-------7-------|-5-------5-------|-5---5---5---7--o|
|o10--------------|-8-------8-------|-6-------6-------|-6---6---6---8--o|
|-10--------------|-8---------------|-6-------6-------|-6---6---6---8---|
|-8---------------|-6---------------|-4-------4-------|-4---4---4---6---|

  Cm                Bb                Ab                        Bb
  h       q   q     h       h         h       h         q   q   q   q
|-8-------8-------|-6-------6-------|-4-------4-------|-----4-------6---|
|-8-------8-------|-6-------6-------|-4-------4-------|-----4-------6---|
|-8-------8-------|-7-------7-------|-5-------5-------|-5---5---7---7---|
|-10------10------|-8-------8-------|-6-------6-------|-6---6---8---8---|
|-10----------10\-|-8---------------|-6---------------|-6-------8-------|
|-8-----------8-\-|-6---------------|-4---------------|-4-------6-------|

  Cm                Bb                Ab                            Bb
  q   q   q   q     q   q   h         q   q   h         q   q   q   q
|---------8-------|-----6---6-------|---------4-------|---------4---6---|
|---------8-------|-----6---6-------|---------4-------|---------4---6---|
|---------8-------|-----7---7-------|---------5-------|-5---5---5---7---|
|-10--10--10------|-8---8---8-------|-6---6---6-------|-6---6---6---8---|
|-10--10------10\-|-8---------------|-6---6-----------|-6---6---6---8---|
|-8---8-------8-\-|-6---------------|-4---4-----------|-4---4---4---6---|

  RF
  Cm                Bb                Ab                        Bb
  q   q   q   q     q   q   q   q     q   q   h         q   q   q   q
|---------8-------|---------6-------|---------4-------|-----4-------6---|
|---------8-------|---------6-------|---------4-------|-----4-------6---|
|o--------8-------|---------7-------|---------5-------|-----5-------7--o|
|o10--10--10------|-8---8---8-------|-6---6---6-------|-6---6---8---8--o|
|-10--10------10\-|-8---8-------8---|-6---6-----------|-6-------8-------|
|-8---8-------8-\-|-6---6-------6---|-4---4-----------|-4-------6-------|


            
            
Suggest correction
Creating personal tab
Creating personal tab
You can edit any tab online and save it as your Personal.

You can edit, replace or remove any tab part or add personal notes – all changes will be seen only by you.

Personal tabs can be accessed anytime from any device, even offline.
Learn more »
comments
print report bad tab
1 comment total.
+3 reply
beat65SG 10 Jan 23, 2009 07:22 AM

The fill before the chorus is actually..

-------------------------------------
-------------------------------------
--5-----------------------------------
----5------6------------------------
-------6------6--------------6-------
-----------------6-----8-8------8----

Not a big change but you can hear the other one is off.

guest
You may want to rate the tab now too:
select rating
Wanna post a correction for this tab? Suggest correction