Oops, an error
Loading. Please wait.

Yyz Bass Tab

version 1
version 1

Whole song

Interactive

by Rush
322,052 views 384 this week
51 commentsread comments
1 2 3 4 5
x 129
add to favorites
launch autoscroll
font size
0
reset
guitar tuner
Autoscroll
slow
fast
+/-
esc
set tempo
stop
Help us to improve Ultimate-Guitar.com Take our survey!
×
YYZ             By: Rush
========================

     w+q   +w+q   e s s s s s s s s e e e e s s   e s s s s s s s s e e e e s s
G+-------+------+-5---5---5---5-----5-5-5-5-----+-5---5---5---5-----5-5-5-5-----+
D|5:-R---|------|---4---R---R---R-4---------4-4-|---4---R---R---R-4---------4-4-|
A|4:-----|------|-------------------------------|-------------------------------|
E+-------+------+-------------------------------+-------------------------------+


   e s s s s s s s s e e e e s s   e s s s s s s s s e e e e s s
G+-5---5---5---5-----5-5-5-5-----+-5---5---5---5-----5-5-5-5-----+
D|---4---R---R---R-4---------4-4-|---4---R---R---R-4---------4-4-|
A|-------------------------------|-------------------------------|
E+-------------------------------+-------------------------------+


   e s s s s s s s s e e e e s s   e s s s s s s s s e e e e s s
G+-5---5---5---5-----5-5-5-5-----+-5---5---5---5-----5-5-5-5-----+
D|---4---R---R---R-4---------4-4-|---4---R---R---R-4---------4-4-|
A|-------------------------------|-------------------------------|
E+-------------------------------+-------------------------------+


   e s s s s s s s s e e e e s s   e s s s s s s s s e e e e s s
G+-5---5---5---5-----5-5-5-5-----+-5---5---5---5-----5-5-5-5-----+
D|---4---R---R---R-4---------4-4-|---4---R---R---R-4---------4-4-|
A|-------------------------------|-------------------------------|
E+-------------------------------+-------------------------------+


   e s s s s s s s s e e e e s s   e s s s s s s E s s s s s s s e     +e+h
G+-------------------------------+---------------------------------+--------+
D|-------R---R---R---------------|---R---R---R---R---R---R---R---R-|5:------|
A|-3---3---3---3-----3-3-3-3-----|-3---3---3---3---3---3---3---3---|8:------|
E+---2-------------2---------2-2-+---------------------------------+--------+

  
     t t s s s s s s s s s s s s  q+E     t  t s  s s q
G+---------------------6-8-9-8--------+-----------------+
D|5:-------------6-7-9---------9-10---|2:-9-10-9------R-|
A|4:-------6-7-9----------------------|4:--------10-9---|
E+---8-8-9----------------------------+-----------------+


      s^ s^ s^ s  s  s s  s  s h  q     s s s s s s e h   s s s s s s s s E E e
G+----------------------------------+---2-2---2---------+-2-2---2---------------+
D|5:-12-12-12-10-12-10-9---------12-|4:-----4---4-3-2---|-----4---4-2-----------|
A|4:---------------------12-10-9----|4:---------------4-|-------------4-3-2-4---|
E+----------------------------------+-------------------+---------------------2-+


   s s s s s s e h   s s s s s s s s E E e   s s s s s s e h
G+-2-2---2---------+-2-2---2---------------+-5-5---5---------+
D|-----4---4-3-2---|-----4---4-2-----------|-----7---7-6-5---|
A|---------------4-|-------------4-3-2-4---|---------------7-|
E+-----------------+---------------------2-+-----------------+


   s s s s s s s s E E e   s s s s s s e h   s s s s s s S t s s s e s e
G+-5-5---5---------------+-5-5---5---------+-5-5---5---------------------+
D|-----7---7-5-----------|-----7---7-6-5---|-----7---7-6-5---5-5---5-5---|
A|-------------7-6-5-7---|---------------7-|---------------7-----7-----7-|
E+---------------------5-+-----------------+-----------------------------+


   s s s s s s e h   s s s s s s s s E E e   s s s s s s e h
G+-2-2---2---------+-2-2---2---------------+-2-2---2---------+
D|-----4---4-3-2---|-----4---4-2-----------|-----4---4-3-2---|
A|---------------4-|-------------4-3-2-4---|---------------4-|
E+-----------------+---------------------2-+-----------------+


   s s s s s s s s E E e   s s s s s s e h   s s s s s s s s E E e
G+-2-2---2---------------+-5-5---5---------+-5-5---5---------------+
D|-----4---4-2-----------|-----7---7-6-5---|-----7---7-5-----------|
A|-------------4-3-2-4---|---------------7-|-------------7-6-5-7---|
E+---------------------2-+-----------------+---------------------5-+


   s s s s s s e h   s s s s s s s s E E e   E E E q+E   e e e e s s s e s s s
G+-5-5---5---------+-5-5---5---------------+-------2---+---------2-2---2-2-----+
D|-----7---7-6-5---|-----7---7-5-----------|-----------|-R-----------4-----4---|
A|---------------7-|-------------7-6-5-7---|-2-4-------|---2-4---------------4-|
E+-----------------+---------------------5-+-----2-----+-------2---------------+


   E E e s s s s s E   e e e e s s s e s s s   E E e q s E
G+-------2-2-2-2-2-4-+---------2-2---2-2-----+-----7-5-5-7-+
D|-------------------|-R-----------4-----4---|---5---------|
A|-2-4---------------|---2-4---------------4-|-3-----------|
E+-----2-------------+-------2---------------+-------------+


   +e e e e s s s s s s s s   E s e e e e e e   s s s s s s s s s s s e s e
G+--------7-5-5---5-5-5-----+-------7-5-9-7-5-+-4-5---5---------------------+
D|------5-------7-------7---|---5-5-----------|-----7---7-6-5---7-4---5-5---|
A|----3-------------------7-|-3---------------|---------------7-----7-----7-|
E+--------------------------+-----------------+-----------------------------+


   q e e h   e e e e s s s e s s s   E E e s s s s s E   e e e e s s s e s s s
G+-------2-+---------2-2---2-2-----+-------2-2-2-2-2-4-+---------2-2---2-2-----+
D|---------|-R-----------4-----4---|-------------------|-R-----------4-----4---|
A|-2-4-----|---2-4---------------4-|-2-4---------------|---2-4---------------4-|
E+-----2---+-------2---------------+-----2-------------+-------2---------------+


   E E e E q+s   e e e e s s s s s s s s   E E e q s E   e e e e e e e e
G+-------7-5---+-------7-5-5---5-5-5-----+-----7-5-5-7-+-5-4-5-4---------+
D|---5-7-------|-R---5-------7-------7---|---5---------|---------7-5-3---|
A|-3-----------|---3-------------------6-|-3-----------|---------------5-|
E+-------------+-------------------------+-------------+-----------------+


   q e e s s s e s e   +e e e s s s s s e s s s   E E e q q
G+-------2-2---2-2---+----------2-2-2---2-2-----+-----7-5-7-+
D|-----------4-----4-|----------------4-----4---|---5-------|
A|-2-4---------------|----2-4-----------------2-|-3---------|
E+-----2-------------+--------2-----------------+-----------+


    s  s  s  s s  s  e+ q  q   E s e s s s s s e s s s
G+----------11-9----12-12-14-+-----------2-2---2-2-2-4-+
D|-10-12-10------11----12-14-|---------------4---------|
A|---------------------------|-2-2-4-4-----------------|
E+---------------------------+---------2---------------+


   e s s e e s s s e s s s   E E e e e s s s s   q H   q e e s s s e s s s
G+-----------2-2---2-2-----+-----7-5-5-5-7-5---+-5---+-------2-2---2-2-2-4-+
D|---------------4-----4---|---5-------------7-|---R-|-----------4---------|
A|-2-2-2-4---------------3-|-3-----------------|-----|-2-4-----------------|
E+---------2---------------+-------------------+-----+-----2---------------+


   +e e e e s s s s s s s s   E E e E E s s   e s s s s s s s s s s s s e
G+----------2-2---2---------+-----7-5-7-7-8-+-5---7-5---5---4-5---5-------+
D|--------------4---4-3-2---|---5-------7-8-|---6-----7---7-----7---7-6-5-|
A|----2-4-----------------4-|-3-------------|-----------------------------|
E+--------2-----------------+---------------+-----------------------------+


   q e e e e e e   e s s e e e e s s e   s s s s e s s s s e s s e   q s+h E
G+-------2-------+-----------2---------+-------------------------7-+-5-------+
D|---------4-2-4-|-4-----------4-2-2-4-|---------5-----5-7-5-------|---R-----|
A|-2-4-----------|---2-2-4-------------|-3-3-3-3---3-3-------5-5---|-------4-|
E+-----2---------+---------2-----------+---------------------------+---------+


   E s e e e e s s e   E s e e s s e s s e   E E q e e e
G+-------------2-2---+---------------2-2---+-----7-5---7-+
D|-----------------4-|-------------------4-|---5-----7---|
A|-2-2-4-------------|-2-2-4---------------|-3-----------|
E+-------2-2-2-------+-------2-2-2-2-------+-------------+


                                                        o o
    s  s  s s  s  s s  s  E s  e  e    e  e  s^ s^ s^e s E e e
G+------------------9-12-11-9----16-+-14-12-11-12-11-9---5-4---+
D|-10-10----9-11-12-----------12----|------------------R-5-4---|
A|-------12-------------------------|------------------------7-|
E+----------------------------------+--------------------------+


   q e e s s s e s e   +e e e e s s s e s s s   E E e e e s s s s   q H
G+-------2-2---2-2---+----------2-2---2-2-----+-----7-5-5-5-7-5---+-5---+
D|-----------4-----4-|--------------4-----4---|---5-------------7-|---R-|
A|-2-4---------------|----2-4---------------3-|-3-----------------|-----|
E+-----2-------------+--------2---------------+-------------------+-----+


   +h+q+s E   q e E s s s s s e   q e E s s s e e   q e E e s e e
G+----------+-------------------+-----------------+---------------+
D|----------|---R---4-4---4-----|---R---4-4---4---|---R---5---7-5-|
A|----------|-2---2-----2---2---|-2---2-----2---2-|-3---3---3-----|
E+--------5-+-----------------2-+-----------------+---------------+


   e e e e e e e e   q e E s s s s s e   q e E s s s e e   q e E e s e e
G+-9-7-5-4-5-4-----+-------------------+-----------------+---------------+
D|-------------7-5-|---R---4-4---4-----|---R---4-4---4---|---R---5---7-5-|
A|-----------------|-2---2-----2---2---|-2---2-----2---2-|-3---3---3-----|
E+-----------------+-----------------2-+-----------------+---------------+


   e e e e e s s s s s s   q e E e s s s e   q e E s s s s s e   q e E E e e
G+-9-7-5-4-5-5-4---------+-----------------+-------------------+-----------5-+
D|---------------5-------|---R-------------|---R---4-4---4-----|---R---5-----|
A|-----------------7-5-3-|-2---2-2---2-----|-2---2-----2---2---|-3---3---3---|
E+-----------------------+---------2---2-5-+-----------------3-+-------------+


   e e e q e e e   q e E s s s e e   q e E s s s e e   q e e e e e e   q H   +w
G+-4-----9-7-5-4-+-----------------+-----------------+-------7-7-5-7-+-5---+----+
D|---7-5---------|---R---4-4---4---|---R---4-4---4---|---5-5---------|---R-|----|
A|---------------|-2---2-----2-----|-2---2-----2---2-|-3-------------|-----|----|
E+---------------+---------------2-+-----------------+---------------+-----+----+


   h+Q e   +w   h+Q e   +w   h+Q e   +w   s+h E e e   +w   h+Q e   +w   h+Q e
G+-------+----+-------+----+-------+----+-----------+----+-------+----+-------+
D|-------|----|-------|----|-------|----|-----------|----|-------|----|-------|
A|-------|----|-------|----|-------|----|-----------|----|-------|----|-------|
E+-5---5-+----+-5---5-+----+-5---5-+----+-5---5-5-5-+----+-5---5-+----+-5---5-+


   +q H   h+Q e   +w   h+Q e   +w   +H q   s s s s s s e h
G+------+-------+----+-------+----+------+-2-2---2---------+
D|------|-------|----|-------|----|----4-|-----4---4-3-2---|
A|------|-------|----|-------|----|------|---------------4-|
E+----5-+-5---5-+----+-5---5-+----+------+-----------------+


   s s s s s s s s E E e   s s s s s s e h   s s s s s s s s E E e
G+-2-2---2---------------+-2-2---2---------+-2-2---2---------------+
D|-----4---4-2-----------|-----4---4-3-2---|-----4---4-2-----------|
A|-------------4-3-2-4---|---------------4-|-------------4-3-2-4---|
E+---------------------2-+-----------------+---------------------2-+


   s s s s s s e h   s s s s s s s s E E e   s s s s s s e h
G+-5-5---5---------+-5-5---5---------------+-5-5---5---------+
D|-----7---7-6-5---|-----7---7-5-----------|-----7---7-6-5---|
A|---------------7-|-------------7-6-5-7---|---------------7-|
E+-----------------+---------------------5-+-----------------+


   s s s s s s S t s s s e s e   s s s s s s s s+h   s s s s s s s s E E e
G+-5-5---5---------------------+-2-2---2-----------+-2-2---2---------------+
D|-----7---7-6-5---5-5---5-5---|-----4---4-3-2-----|-----4---4-2-----------|
A|---------------7-----7-----7-|---------------4---|-------------4-3-2-4---|
E+-----------------------------+-------------------+---------------------2-+


   s s s s s s e h   s s s s s s s s E E e   s s s s s s e h
G+-2-2---2---------+-2-2---2---------------+-5-5---5---------+
D|-----4---4-3-2---|-----4---4-2-----------|-----7---7-6-5---|
A|---------------4-|-------------4-3-2-4---|---------------7-|
E+-----------------+---------------------2-+-----------------+


   s s s s s s s s E E e   s s s s s s e h   s s s s s s s s E E e   E E e h
G+-5-5---5---------------+-5-5---5---------+-5-5---5---------------+-------2-+
D|-----7---7-5-----------|-----7---7-6-5---|-----7---7-5-----------|---------|
A|-------------7-6-5-7---|---------------7-|-------------7-6-5-7---|-2-3-----|
E+---------------------5-+-----------------+---------------------5-+-----2---+


   e e e e s s s e s s s   E E e s s s s s E   e e e e s s s e E   E E e q s E
G+---------2-2---2-2-----+-------2-2-2-2-2-4-+---------2-2---2---+-----7-5-5-7-+
D|-R-----------4-----4---|-------------------|-R-----------4---2-|---5---------|
A|---2-4---------------4-|-2-4---------------|---2-4-------------|-3-----------|
E+-------2---------------+-----2-------------+-------2-----------+-------------+


   +e e e e s s s e s s s   E E e q s E   e e e e s s s e s s s   q e e q q
G+--------7-5-5---5-5-----+-----7-5-5-7-+-----------------------+-------2---+
D|------5-------7-----7---|---5---------|---2-3-5-3-3---2-2-----|---------2-|
A|----3-----------------6-|-3-----------|-3-----------5-----5-3-|-2-4-------|
E+------------------------+-------------+-----------------------+-----2-----+


   e e e e s s s e s e   q e e s s s s q   e e e e s s s s s s e   E E e q s E
G+---------2-2---2-2---+-------2-2-2-2---+---------2-2---2-------+-----7-5-5-7-+
D|-R-----------4-----4-|---------------2-|-R-----------4---R-2---|---5---------|
A|---2-4---------------|-2-4-------------|---2-4---------------4-|-3-----------|
E+-------2-------------+-----2-----------+-------2---------------+-------------+


   +e e e e s s s e s s s   E E e q s E   q E  s  s  s  s  s  s  s  s s
G+--------7-5-5---5-5-----+-----7-5-5-7-+-5-----------------------------+
D|------5-------7-----7---|---5---------|-5-R-14-14-12----12-10----10-9-|
A|----3-----------------6-|-3-----------|--------------14-------10------|
E+------------------------+-------------+-------------------------------+


   s  s  s s s s s  s s E q   e e s e E e q   +H s s s s
G+--------------------------+---------------+------------+
D|-7-10------7------------R-|---------------|----4-2-----|
A|------10-7---9-7----------|-3-3---3-3-3---|--------5-2-|
E+-----------------10-8-7---+-----2-------2-+------------+


==========================================================================

                Created using the Bass Tab Creator
     __         by Mario D'Alessio (motcid!marble!dalessio)
   +|oo|+       
   +|oo|+       Notes:  w = Whole  h = Half  q = Quarter
     ||                 e = 8th    s = 16th  t = 32nd  x = 64th
     ||
     ||                 Capital durations are dotted notes
     ||                   (equal to 1.5 times the duration value)
     ||
     ||             #
     ||         +----+                   +----+
  _  ||  _      |*--*+  = MEASURE        |4:--|  = TIME
  \\_||_//      |*--*+    REPEATS        |4:--|    SIGNATURES
   | [] |       +----+   (#=Num Repeats) +----+
   | || |
  /  []  \      + = TIE         ^  = TRIPLET           > = BEND
  \______/      H = HAMMER ON   \  = SLIDE TO FRET     R = Rest
                P = PULL OFF    \X = SLIDE TO NOWHERE  ~ = Trill



 
Suggest correction
comments
print report bad tab
51 comments total. Showing first comments. show 1 bad comment
+3 reply
herrly 160 Mar 04, 2005 12:00 AM

great, a few errors here and there but overall, its pretty great, 5 stars!

+1 reply
mikedeit 1,163 Apr 07, 2005 12:00 AM

Wow! Great tab

guest
You may want to rate the tab now too:
select rating
Wanna post a correction for this tab? Suggest correction