Oops, an error
Loading. Please wait.

A Way Out Tab

20 views 1 this week
no commentswrite comment
1 2 3 4 5
please rate
add to favorites
launch autoscroll
font size
0
reset
how to read this tab
guitar tuner
Autoscroll
slow
fast
+/-
esc
set tempo
stop
Help us to improve Ultimate-Guitar.com Take our survey!
×
Difficulty
intermediate
Intro
0:13
--------4---------------4-----------|
-----7-----7--6--46--7-----7--6--46-|
---44-44-44-44-44--33-33-33-33-33---|
------------------------------------|                              6
------------------------------------|                              6
------------------------------------|  REPEATEDLY SLOW DOWN THEN   4

Riff
0:35
------------------------------------|
------------------------------------|
---8--------------------------------|
---8----4----9----6-----------------|
---6----4----9----6-----------------|
--------2----7----4-----------------|  REPEATEDLY

Verse
1:00
Palm mute
8
8
6

1:15
Riff

1:30

1:40
Intro

2:00
Riff

2:30
Verse

2:43
Riff

2:55

Solo
3:05
(Improvise over intro)

Solo
3:30
(Improvise over riff)

Solo
4:00
(Improvise over verse)

4:30
Verse

4:45
Riff

5:00
(FADE)
Suggest correction
Give kudos to tab author, rate the tab!
1 2 3 4 5
comments
print report bad tab
guest
You may want to rate the tab now too:
select rating
Please do not post tabs as comments. Select "correction" instead!