Oops, an error
Loading. Please wait.

Woo Boost Bass Tab

1,408 views 1 this week
no commentswrite comment
1 2 3 4 5
1 last vote to show rating
add to favorites
launch autoscroll
font size
0
reset
guitar tuner
Autoscroll
slow
fast
+/-
esc
set tempo
stop
Help us to improve Ultimate-Guitar.com Take our survey!
×
Author
Tuning
D A D G B E
Rusko - Woo Boost

I have made 2 versions of the song as I haven't decided which one is best (and there 
isn't an actual bass guitar in the song). Version 2 is just an ocative lower so it's 
possible to mix and match the 2 tabs to get the sound you want.

Drop D tuning.

Version 1:

G|----------4---4-----------|-------------------------|----------------5-4-4-|
D|--2---5-----------1---1---|-------------------------|--2---2-4-5-5---------|
A|--------------------------|-------------------------|----------------------|
D|--------------------------|--2---2---2-5--5--1--1---|----------------------|

G|-4-4-4---------9--4--5--8--8---|
D|-------------------------------|
A|-------------------------------|
D|-------------------------------|

G|----------4---4-----------|-------------------------|----------------5-4---|
D|--2---5-----------1---1---|-------------------------|--2-----4-5-----------|
A|--------------------------|-------------------------|----------------------|
D|--------------------------|--2---2---2-5--5--1--1---|----------------------|

G|--------------99-4--5--8--8----|
D|-------------------------------|
A|-------------------------------|
D|-------------------------------|

G|----------4-4-4-----------|-------------------------|----------------5-4-4-|
D|--2-2-5-----------1-1-1-1-|--2-2-2-2-2-5-5-1-1-1-1--|--2-2-2-5-5-5-5-------|
A|--------------------------|-------------------------|----------------------|
D|--------------------------|-------------------------|----------------------|

G|-4-4-4-4-4-4-4-999444555888888-|
D|-------------------------------|
A|-------------------------------|
D|-------------------------------|

Repeat as neccessary.

Version 2.

G|--------------------------|-------------------------|----------------------|
D|--------------------------|-------------------------|----------------------|
A|----------2---2-----------|-------------------------|----------------3-2-2-|
D|--2---5-----------1---1---|--2---2---2-5--5--1--1---|--2---2-4-5-5---------|

G|-------------------------------|
D|---------------2--------1--1---|
A|-2-2-2------------3--2---------|
D|-------------------------------|

G|--------------------------|-------------------------|----------------------|
D|--------------------------|-------------------------|----------------------|
A|----------2---2-----------|-------------------------|----------------3-2---|
D|--2---5-----------1---1---|--2---2---2-5--5--1--1---|--2-----4-5-----------|

G|-------------------------------|
D|---------------22-------1--1---|
A|------------------3--2---------|
D|-------------------------------|

G|--------------------------|-------------------------|----------------------|
D|--------------------------|-------------------------|----------------------|
A|----------2-2-2-----------|-------------------------|----------------3-2-2-|
D|--2-2-5-----------1-1-1-1-|--2-2-2-2-2-5-5-1-1-1-1--|--2-2-2-5-5-5-5-------|

G|-------------------------------|
D|---------------222------111111-|
A|-2-2-2-2-2-2-2----333222-------|
D|-------------------------------|

Repeat as neccessary.

Enjoy!
Suggest correction
Give kudos to tab author, rate the tab!
1 2 3 4 5
comments
print report bad tab
guest
You may want to rate the tab now too:
select rating
Wanna post a correction for this tab? Suggest correction