Oops, an error
Loading. Please wait.

Woo Boost Tab

1,706 views 1 this week
no commentswrite comment
1 2 3 4 5
2 more votes to show rating
add to favorites
launch autoscroll
font size
0
reset
how to read this tab
guitar tuner
Autoscroll
slow
fast
+/-
esc
set tempo
stop
Help us to improve Ultimate-Guitar.com Take our survey!
×
Author
Difficulty
Tuning
novice
D A D G B E
This isn't actually the whole song, but a piece from the middle that I was able to
figure out. It isn't perfect, but comment any changes that should be made. This is my first
tab so don't hate. I'll work on the intro and the rest of the song later but this is 
what I've got.

Tuning is drop D


E|------------------------------------------------------------|
B|------------------------------------------------------------|
G|------------------------------------------------------------|
D|------------------------------------------------------------|
A|--------2--2------------------2-2--2------------------------|
D|--2--5--------1--1--2---2--5---------1-1-1-1-2---2--2-4-5---|

E|-------------------------------------|
B|-------------------------------------|
G|-------------------------------------|
D|------------------------1-1-2--------|
A|---3-2--2-2--2--2-2------------------|
D|-5------------------5-5--------------|


Repeat until it changes section....and that's it
Enjoy
Suggest correction
Give kudos to tab author, rate the tab!
1 2 3 4 5
comments
print report bad tab
guest
You may want to rate the tab now too:
select rating
Wanna post a correction for this tab? Suggest correction