Oops, an error
Loading. Please wait.

Heaven Never Makes Us Fall Bass Tab

10 views 1 this week
no commentswrite comment
1 2 3 4 5
3 more votes to show rating
add to favorites
launch autoscroll
font size
0
reset
guitar tuner
Autoscroll
slow
fast
+/-
esc
set tempo
stop
Help us to improve Ultimate-Guitar.com Take our survey!
×
Intro : 00:02
G|---------------------------------|---------------------------------|
D|---------------------------------|---------------------------------|
A|3---3-------3---3---3-------3----|3---3-------3---3---3-------3----|
E|---------------------------------|---------------------------------|

G|---------------------------------|---------------------------------|
D|---------------------------------|---------------------------------|
A|6---6-------6---6---6-------6----|6---6-------6---6---6-------6----|
E|---------------------------------|---------------------------------|

Verse 1 :
G|---------------------------------|---------------------------------|
D|---------------------------------|---------------------------------|
A|3-----------3--------------------|3--------------------------------|
E|---------------------------------|------------3-----------4--------|

G|---------------------------------|---------------------------------|
D|---------------------------------|---------------------------------|
A|6-----------6--------------------|6-----------3---1----------------|
E|---------------------------------|---------------------------------|

G|---------------------------------|-----------------------5---------|
D|3---3-------3---3---3------------|------------------------------4--|
A|---------------------------------|3---3-------3---3---3------------|
E|---------------------------------|---------------------------------|

G|---------------------------------|------------------------5--------|
D|3---3-------3---3---3------------|------------------------------4--|
A|---------------------------------|3---3-------3---3---3------------|
E|---------------------------------|---------------------------------|

G|---------------------------------|---------------------------------|
D|3---3-------3---3---3------------|---------------------------------|
A|------------------------6--------|5---5---5------------------------|
E|---------------------------------|------------------------2---3----|

Chorus :
G|---------------------------------|---------------------------------|
D|---------------------------------|3---3-------3---3-------3--------|
A|3-----------3---3-------3--------|---------------------------------|
E|---------------------------------|---------------------------------|

G|---------------------------------|---------------------------------|
D|6---6-------6---6---6------------|1---1-----1---------4---3---4----|
A|---------------------------------|------------1---1----------------|
E|---------------------------------|---------------------------------|

G|---------------------------------|---------------------------------|
D|---------------------------------|3---3-------3---3-------3--------|
A|3-----------3---3-------3--------|---------------------------------|
E|---------------------------------|---------------------------------|

G|---------------------------------|---------------------------------|
D|6---6-------6---6---6------------|---------------------------------|
A|---------------------------------|6---6-----6-4---4---4---4---4----|
E|---------------------------------|---------------------------------|

Interlude :
G|---------------------------------|---------------------------------|
D|---------------------------------|---------------------------------|
A|3---3-------3---3---3-------3----|3---3-------3---3---3-------3----|
E|---------------------------------|---------------------------------|

G|---------------------------------|---------------------------------|
D|---------------------------------|---------------------------------|
A|6---6-------6---6---6-------6----|6---6-------6---6---6-------6----|
E|---------------------------------|---------------------------------|

Verse 2 :
G|---------------------------------|---------------------------------|
D|---------------------------------|---------------------------------|
A|3-----------3--------------------|3--------------------------------|
E|---------------------------------|------------3-----------4--------|

G|---------------------------------|---------------------------------|
D|---------------------------------|---------------------------------|
A|6-----------6--------------------|6-----------3---1----------------|
E|---------------------------------|---------------------------------|

G|---------------------------------|-----------------------5---------|
D|3---3-------3---3---3------------|------------------------------4--|
A|---------------------------------|3---3-------3---3---3------------|
E|---------------------------------|---------------------------------|

G|---------------------------------|------------------------5--------|
D|3---3-------3---3---3------------|------------------------------4--|
A|---------------------------------|3---3-------3---3---3------------|
E|---------------------------------|---------------------------------|

G|---------------------------------|---------------------------------|
D|3---3-------3---3---3------------|---------------------------------|
A|------------------------6--------|5---5---5------------------------|
E|---------------------------------|------------------------2---3----|

Chorus :
G|---------------------------------|---------------------------------|
D|---------------------------------|3---3-------3---3-------3--------|
A|3-----------3---3-------3--------|---------------------------------|
E|---------------------------------|---------------------------------|

G|---------------------------------|---------------------------------|
D|6---6-------6---6---6------------|1---1-----1---------4---3---4----|
A|---------------------------------|------------1---1----------------|
E|---------------------------------|---------------------------------|

G|---------------------------------|---------------------------------|
D|---------------------------------|3---3-------3---3-------3--------|
A|3-----------3---3-------3--------|---------------------------------|
E|---------------------------------|---------------------------------|

G|---------------------------------|---------------------------------|
D|6---6-------6---6---6------------|---------------------------------|
A|---------------------------------|6---6-----6-4---4---4---4---4----|
E|---------------------------------|---------------------------------|

G|---------------------------------|---------------------------------|
D|---------------------------------|3---3-------3---3-------3--------|
A|3-----------3---3-------3--------|---------------------------------|
E|---------------------------------|---------------------------------|

G|---------------------------------|---------------------------------|
D|6---6-------6---6---6------------|1---1-----1---------4---3---4----|
A|---------------------------------|------------1---1----------------|
E|---------------------------------|---------------------------------|

G|---------------------------------|---------------------------------|
D|---------------------------------|3---3-------3---3-------3--------|
A|3-----------3---3-------3--------|---------------------------------|
E|---------------------------------|---------------------------------|

G|---------------------------------|---------------------------------|
D|6---6-------6---6---6------------|---------------------------------|
A|---------------------------------|6---6-----6-4---4---4---4---4----|
E|---------------------------------|---------------------------------|

A little break 

2:27
Interlude :
G|---------------------------------|---------------------------------|
D|---------------------------------|---------------------------------|
A|3---3-------3-----------2---3----|3---3-------3-----------2---3----|
E|----------------3---5------------|----------------3---5------------|

G|---------------------------------|---------------------------------|
D|---------------------------------|---------------------------------|
A|6---6-------6-------3---5---6----|6---6-------6-------3---5---6----|
E|----------------6----------------|----------------6----------------|

G|---------------------------------|
D|---------------------------------|
A|---------------------------------|
E|---------------------------------|

Chorus :
G|---------------------------------|---------------------------------|
D|---------------------------------|3---3-------3---3-------3--------|
A|3-----------3---3-------3--------|---------------------------------|
E|---------------------------------|---------------------------------|

G|---------------------------------|---------------------------------|
D|6---6-------6---6---6------------|1---1-----1---------4---3---4----|
A|---------------------------------|------------1---1----------------|
E|---------------------------------|---------------------------------|

G|---------------------------------|---------------------------------|
D|---------------------------------|3---3-------3---3-------3--------|
A|3-----------3---3-------3--------|---------------------------------|
E|---------------------------------|---------------------------------|

G|---------------------------------|---------------------------------|
D|6---6-------6---6---6------------|---------------------------------|
A|---------------------------------|6---6-----6-4---4---4---4---4----|
E|---------------------------------|---------------------------------|

G|---------------------------------|---------------------------------|
D|---------------------------------|3---3-------3---3-------3--------|
A|3-----------3---3-------3--------|---------------------------------|
E|---------------------------------|---------------------------------|

G|---------------------------------|---------------------------------|
D|6---6-------6---6---6------------|1---1-----1---------4---3---4----|
A|---------------------------------|------------1---1----------------|
E|---------------------------------|---------------------------------|

G|---------------------------------|---------------------------------|
D|---------------------------------|3---3-------3---3-------3--------|
A|3-----------3---3-------3--------|---------------------------------|
E|---------------------------------|---------------------------------|

G|---------------------------------|---------------------------------|
D|6---6-------6---6---6------------|---------------------------------|
A|---------------------------------|6---6-----6-4---4---4---4---4----|
E|---------------------------------|---------------------------------|
Suggest correction
Give kudos to tab author, rate the tab!
1 2 3 4 5
comments
print report bad tab
guest
You may want to rate the tab now too:
select rating
Wanna post a correction for this tab? Suggest correction