Oops, an error
Loading. Please wait.

The Real Thing tab

version 2
version 2

Whole song

  • I went too see Russell Morris Live and asked him if I played the song correctly.
127 views 3 this week
no commentswrite comment
1 2 3 4 5
1 last vote to show rating
add to favorites
×
Save as Personal and add changes to this tab that will be seen only by you. Learn more ›
×
You can save this tab as Personal to edit and correct it or add notes. All changes will be seen only by you. Learn more »
launch autoscroll
font size
0
reset
how to read this tab
guitar tuner
edit
Autoscroll
slow
fast
+/-
esc
set tempo
stop
Author
Difficulty
About this tab version
I went too see Russell Morris Live and asked him if I played the song correctly. Was this info helpful? Yes No
Russell Morris - The Real Thing


[Intro]

e|------0-------|--------5--|---------------|--------------| x2
B|--4-----4-----|----7------|--5-----5------|-------10-9---|
G|----4-----4---|------7----|----6-----6----|--------------|
D|--------------|-----------|------7-----7--|-----9--------|
A|--2-----------|--5--------|--0------------|--/7---7--7---|
E|--------------|-----------|---------------|--------------|


[Verse]

e|---------|-2--2-3-2p-2-|-------------|--------------| x2 |----| He strums a lot of times, work it out.
B|---------|-3--3-3----3-|-2--2-3-2p-2-|-0p------3----|    |----|
G|-----4-x-|-2--2-2----2-|-2--2-2----2-|-0p-1--1-1-1--|    |-4--|
D|-----4-x-|-------------|-2--2-2----2-|-0p-2--2-2-2--|    |-4--|
A|-2-2-2-x-|-------------|-0--0-0----0-|----2--2-2-2--|    |-2--|
E|---------|-------------|-------------|----0--0---0--|    |----|


[Chorus]

e|-2-|-5-|-7-|-10-|   |-2-2-2-2-2-2-----| x3 Let the last one ring out on the D
B|-3-|-6-|-8-|-11-|   |-3-3-3-3-3-3-----|
G|-2-|-5-|-7-|-10-|   |-2-2-2-2-2-0-2h--|
D|---|---|---|----|   |-----------------|
A|---|---|---|----|   |-----------------|
E|---|---|---|----|   |-----------------|

I know this isn't the full song, when I get time I will finish it. 
With what I have written down you should be able to figure it out :)

The source for this Tab came directly from Russell Morris himself.
(I asked how to play when I went to see him live)



************************************

| x  Dead note
| h  Hammer-on
| p  Pull-off
| /  Slide up

************************************

            
            
Suggest correction
Creating personal tab
Creating personal tab
You can edit any tab online and save it as your Personal.

You can edit, replace or remove any tab part or add personal notes – all changes will be seen only by you.

Personal tabs can be accessed anytime from any device, even offline.
Learn more »
Give kudos to tab author, rate the tab!
1 2 3 4 5
comments
print report bad tab
guest
You may want to rate the tab now too:
select rating
Wanna post a correction for this tab? Suggest correction