Oops, an error
Loading. Please wait.

Campaign Tab

version 1
version 1

Whole song

Interactive

2,231 views 21 this week
no commentswrite comment
1 2 3 4 5
excellent!
x 1
add to favorites
launch autoscroll
font size
0
reset
how to read this tab
guitar tuner
Tab Pro tools
  • play this tab
  • loop segment
  • change instrument
  • show fretboard
  • metronome
Autoscroll
slow
fast
+/-
esc
set tempo
stop
Contributor
Campaign by Russian Circles

Note: It's not perfect, but hopefully someone better than me can take a look at it and 
improve upon it. DADGAD tuning, of course.

Background tapping guitar is either
this:
D|--------------|        |---------------|
A|--------------|        |---------------|
G|-t9p5---------|  or:   |-t10p5---------|  or some combination
D|-------t10p7--|        |-------t10p7---|       of both
A|--------------|        |---------------|
D|--------------|        |---------------|

Layered guitar isn't too difficult to figure out:
|---|---|----|-----|----|----------|------|
|---|---|----|-----|----|----------|------|
|-7-|-9-|-10-|-12--|-14-|-14/15-14-|--17--|
|---|---|----|-----|----|----------|------|
|-5-|-7-|-8--|-10--|-12-|-12/13-12-|--15--|
|---|---|----|-----|----|----------|------|

Then I think it might be this, but then again it could've been this all along:
|--------------|
|--------------|
|-t9p5---------|
|-------t9p7---|
|--------------|
|--------------|

Clean bit at 3:50
|-----------------------------------------------------------------|
|----------------------7------7-----------------------------------|
|-9----------12---------------------------------------------------|
|-------------------------------------7---------------------------|
|-------------------3------5-------------------7-------3------5---|
|---7-----10-----------------------7-------10-------3------5------|

Next part at 4:15 (this could easily be the previous bit looped over with something else 
but here it is for one guitar):
|-------------------------------------------------|
|-------------------------------------------------|
|-9-----9------9/12--9---------9h10-9---------9---|
|-------------------------------------------------|
|-------------------------------------------------|
|----7-----7-------------10-10----------12-12-----|

----------------------------------------------------|
----------------------------------------------------|
----------------------------------------------------|
--------9---------------------------5-------3-2-0---|
-----7----------7-7/10-0--------3-------------------|
--7--------7-----------------3----------3-----------|

then something along the lines of this:
|----17------------17---|
|-15----15-----15-------|
|-----------17----------|
|-----------------------|
|-----------------------|
|-----------------------|
but I can't really figure that bit out.

Someone tab this out for real…as well as the rest of their stuff because I want to learn 
how to play it. and tabbing sucks obviously.

Peace
comments
We did not receive enough feedback on this tab! Please rate:
print report bad tab
1 2 3 4 5
I want to post or [tab]
guest
You may want to rate the tab now too:
select rating
Please do not post tabs as comments. Select "correction" instead!