Oops, an error
Loading. Please wait.

Mota tab

166 views 3 this week
1 commentread comment
1 2 3 4 5
x 3
add to favorites
×
Save as Personal and add changes to this tab that will be seen only by you. Learn more ›
×
You can save this tab as Personal to edit and correct it or add notes. All changes will be seen only by you. Learn more »
launch autoscroll
font size
0
reset
how to read this tab
guitar tuner
edit
Autoscroll
slow
fast
+/-
esc
set tempo
stop
[Intro]

B |7-----7-----7---7-----7-----7---|7-----7-----7---7-----7-----7---|
F#|--8-----8---------8-----8-------|--8-----8---------8-----8-------|
D |----9-----9---9-----9-----9---9-|----9-----9---9-----9-----9---9-|
A |--------------------------------|--------------------------------|
E |--------------------------------|--------------------------------|
B |--------------------------------|--------------------------------|
   PM--------------------------------------------------------------|

B |8-----8-----8---8-----8-----8---|8-----8-----8---8-----8-----8---|
F#|--8-----8---------8-----8-------|--8-----8---------8-----8-------|
D |----9-----9---9-----9-----9---9-|----9-----9---9-----9-----9---9-|
A |--------------------------------|--------------------------------|
E |--------------------------------|--------------------------------|
B |--------------------------------|--------------------------------|
   PM--------------------------------------------------------------|


[Verse 1]

B |7-----7-----7---7-----7-----7---|7-----7-----7---7-----7-----7---|
F#|--8-----8---------8-----8-------|--8-----8---------8-----8-------|
D |----9-----9---9-----9-----9---9-|----9-----9---9-----9-----9---9-|
A |--------------------------------|--------------------------------|
E |--------------------------------|--------------------------------|
B |--------------------------------|--------------------------------|
   PM--------------------------------------------------------------|

B |8-----8-----8---8-----8-----8---|8-----8-----8---8-----8-----8---|
F#|--8-----8---------8-----8-------|--8-----8---------8-----8-------|
D |----9-----9---9-----9-----9---9-|----9-----9---9-----9-----9---9-|
A |--------------------------------|--------------------------------|
E |--------------------------------|--------------------------------|
B |--------------------------------|--------------------------------|
   PM--------------------------------------------------------------|

B |10-------10-------10----10-------10-------10----|10-------10-------10----10-------10-------10----|
F#|---11-------11-------------11-------11----------|---11-------11-------------11-------11----------|
D |------12-------12----12-------12-------12----12-|------12-------12----12-------12-------12----12-|
A |------------------------------------------------|------------------------------------------------|
E |------------------------------------------------|------------------------------------------------|
B |------------------------------------------------|------------------------------------------------|
   PM----------------------------------------------------------------------------------------------|

B |5-----5-----5---5-----5-----5---|5-----5-----5---5-----5-----5---|
F#|--7-----7---------7-----7-------|--7-----7---------7-----7-------|
D |----7-----7---7-----7-----7---7-|----7-----7---7-----7-----7---7-|
A |--------------------------------|--------------------------------|(x2)
E |--------------------------------|--------------------------------|
B |--------------------------------|--------------------------------|
   PM--------------------------------------------------------------|

B |12-------12-------12----12-------12-------12----|12-------12-------12----12-------12-------12----|
F#|---12-------12-------------12-------12----------|---12-------12-------------12-------12----------|
D |------14-------14----14-------14-------14----14-|------14-------14----14-------14-------14----14-|
A |------------------------------------------------|------------------------------------------------|
E |------------------------------------------------|------------------------------------------------|
B |------------------------------------------------|------------------------------------------------|
   PM----------------------------------------------------------------------------------------------|

B |15-------15-------15----15-------15-------15----|15-------15-------15----15-------15-------15----|
F#|---15-------15-------------15-------15----------|---15-------15-------------15-------15----------|
D |------16-------16----16-------16-------16----16-|------16-------16----16-------16-------16----16-|
A |------------------------------------------------|------------------------------------------------|
E |------------------------------------------------|------------------------------------------------|
B |------------------------------------------------|------------------------------------------------|
   PM----------------------------------------------------------------------------------------------|

B |7-----7-----7---7-----7-----7---|7-----7-----7---7-----7-----7---|
F#|--8-----8---------8-----8-------|--8-----8---------8-----8-------|
D |----9-----9---9-----9-----9---9-|----9-----9---9-----9-----9---9-|
A |--------------------------------|--------------------------------|
E |--------------------------------|--------------------------------|
B |--------------------------------|--------------------------------|
   PM--------------------------------------------------------------|

B |5-----5-----5---5-----5-----5---|5-----5-----5---5-----5-----5---|
F#|--7-----7---------7-----7-------|--7-----7---------7-----7-------|
D |----7-----7---7-----7-----7---7-|----7-----7---7-----7-----7---7-|
A |--------------------------------|--------------------------------|
E |--------------------------------|--------------------------------|
B |--------------------------------|--------------------------------|
   PM--------------------------------------------------------------|

B |7-----7-----7---7-----7-----7---|7-----7-----7---7-----7-----7---|
F#|--8-----8---------8-----8-------|--8-----8---------8-----8-------|
D |----9-----9---9-----9-----9---9-|----9-----9---9-----9-----9---9-|
A |--------------------------------|--------------------------------|
E |--------------------------------|--------------------------------|
B |--------------------------------|--------------------------------|
   PM--------------------------------------------------------------|

B |8-----8-----8---8-----8-----8---|8-----8-----8---8-----8-----8---|
F#|--8-----8---------8-----8-------|--8-----8---------8-----8-------|
D |----9-----9---9-----9-----9---9-|----9-----9---9-----9-----9---9-|
A |--------------------------------|--------------------------------|
E |--------------------------------|--------------------------------|
B |--------------------------------|--------------------------------|
   PM--------------------------------------------------------------|

B |10-------10-------10----10-------10-------10----|10-------10-------10----10-------10-------10----|
F#|---11-------11-------------11-------11----------|---11-------11-------------11-------11----------|
D |------12-------12----12-------12-------12----12-|------12-------12----12-------12-------12----12-|
A |------------------------------------------------|------------------------------------------------|
E |------------------------------------------------|------------------------------------------------|
B |------------------------------------------------|------------------------------------------------|
   PM----------------------------------------------------------------------------------------------|

B |5-----5-----5---5-----5-----5---|5-----5-----5---5-----5-----5---|
F#|--7-----7---------7-----7-------|--7-----7---------7-----7-------|
D |----7-----7---7-----7-----7---7-|----7-----7---7-----7-----7---7-|
A |--------------------------------|--------------------------------|(x2)
E |--------------------------------|--------------------------------|
B |--------------------------------|--------------------------------|
   PM--------------------------------------------------------------|

B |12-------12-------12----12-------12-------12----|12-------12-------12----12-------12-------12----|
F#|---12-------12-------------12-------12----------|---12-------12-------------12-------12----------|
D |------14-------14----14-------14-------14----14-|------14-------14----14-------14-------14----14-|
A |------------------------------------------------|------------------------------------------------|
E |------------------------------------------------|------------------------------------------------|
B |------------------------------------------------|------------------------------------------------|
   PM----------------------------------------------------------------------------------------------|

B |15-------15-------15----15-------15-------15----|15-------15-------15----15-------15-------15----|
F#|---15-------15-------------15-------15----------|---15-------15-------------15-------15----------|
D |------16-------16----16-------16-------16----16-|------16-------16----16-------16-------16----16-|
A |------------------------------------------------|------------------------------------------------|
E |------------------------------------------------|------------------------------------------------|
B |------------------------------------------------|------------------------------------------------|
   PM----------------------------------------------------------------------------------------------|

B |7-----7-----7---7-----7-----7---|7-----7-----7---7-----7-----7---|
F#|--8-----8---------8-----8-------|--8-----8---------8-----8-------|
D |----9-----9---9-----9-----9---9-|----9-----9---9-----9-----9---9-|
A |--------------------------------|--------------------------------|
E |--------------------------------|--------------------------------|
B |--------------------------------|--------------------------------|
   PM--------------------------------------------------------------|

B |5-----5-----5---5-----5-----5---|5-----5-----5---5-----5-----5---|
F#|--7-----7---------7-----7-------|--7-----7---------7-----7-------|
D |----7-----7---7-----7-----7---7-|----7-----7---7-----7-----7---7-|
A |--------------------------------|--------------------------------|
E |--------------------------------|--------------------------------|
B |--------------------------------|--------------------------------|


[Interlude]

B |----------------------|---------------------|
F#|12------12-13------13-|12---13-12------10---|
D |---12-9-------12-9----|---9-------12-9----9-|
A |----------------------|---------------------|(x8)
E |----------------------|---------------------|
B |----------------------|---------------------|
PM--------------------------------------------|
   
B |------------------------|------------------------|
F#|------------------------|------------------------|
D |12-------12-13-------13-|12----13-12-------10----|
A |---13-10-------13-10----|---10-------12-10----10-|(x8)
E |------------------------|------------------------|
B |------------------------|------------------------|
   PM----------------------------------------------|


[Heavy Part]

B |-----------------|------------------|----------------|----------------|
F#|-----------------|------------------|----------------|----------------|
D |-----------------|------------------|----------------|----------------|
A |10---------------|10-----------10---|6-----------6---|3-----------3---|(x2)
E |10---------------|10-----------10---|6-----------6---|3-----------3---|
B |8----------------|8------------8----|4-----------4---|1-----------1---|

B |----------------|----------------|------------------|------------------|
F#|----------------|----------------|------------------|------------------|
D |5---------------|5-----------5---|15-----------17---|13-----------12---|
A |----------------|----------------|------------------|------------------|(x2)
E |3---------------|3-----------3---|13-----------15---|11-----------10---|
B |----------------|----------------|------------------|------------------|


[Verse 2]

B |----|
F#|----|
D |5h8-|
A |----|
E |----|
B |----|

   1st, 2nd, 3rd Ending        4th Ending             
   t      t      t             t      t      t
B |---------------------------|---------------------------|
F#|---------------------------|---------------------------|
D |13p5h8h12p5h8h13p5h8p5-5---|13p5h8h12p5h8h10p5h8p5-5---|
A |---------------------------|---------------------------|(x2)
E |---------------------------|---------------------------|
B |---------------------------|---------------------------|

   1st through 5th Endings     6th Ending
   t      t      t             t      t      t
B |---------------------------|---------------------------|
F#|---------------------------|---------------------------|
D |15p5h8h12p5h8h15p5h8p5-5---|15p5h8h12p5h8h17p5h8p5-5---|
A |---------------------------|---------------------------|(x2)
E |---------------------------|---------------------------|
B |---------------------------|---------------------------|


B |---------------------------------|
F#|---------------------------------|
D |17N------------------------------|
A |---------------------------------|(x6)
E |15N------------------------------|
B |---------------------------------|

B |------------------------|------------------------|
F#|------------------------|------------------------|
D |17-17-17-17-17\15-15-15-|15\13-13-13-13-13-15-15-|
A |------------------------|------------------------|
E |15-15-15-15-15\13-13-13-|13\11-11-11-11-11-13-13-|
B |------------------------|------------------------|

B |------------------------|------------------------|
F#|------------------------|------------------------|
D |17-17-17-17-17\15-15-15-|15\13-13-13-13-13-13-13-|
A |------------------------|------------------------|
E |15-15-15-15-15\13-13-13-|13\11-11-11-11-11-11-11-|
B |------------------------|------------------------|

B |------------------------|------------------------|
F#|------------------------|------------------------|
D |13-13-13-13-13\10-10-10-|12\10-10-10-10-10-12-12-|
A |------------------------|------------------------|
E |11-11-11-11-11\10-10-10-|10\8--8--8--8--8--10-10-|
B |------------------------|------------------------|

B |------------------------|------------------------|
F#|------------------------|------------------------|
D |13-13-13-13-13\12-12-12-|12\10-10-10-10-10-12-12-|
A |------------------------|------------------------|
E |11-11-11-11-11\10-10-10-|10\8--8--8--8--8--10-10-|
B |------------------------|------------------------|

B |------------------------|------------------------|
F#|------------------------|------------------------|
D |15-15-15-15-15\13-13-13-|15-15-16-16-16-16-16-15-|
A |------------------------|------------------------|
E |13-13-13-13-13\11-11-11-|13-13-14-14-14-14-14-13-|
B |------------------------|------------------------|

B |------------------------|------------------------|
F#|------------------------|------------------------|
D |15-15-15-15-15\13-13-13-|16-16-16-16-16-16-16-16-|
A |------------------------|------------------------|(x2)
E |13-13-13-13-13\11-11-11-|14-14-14-14-14-14-14-14-|
B |------------------------|------------------------|


[Outro]

B |--------------------------------|--------------------------------|
F#|--------------------------------|--------------------------------|
D |8-----9-----8-----8-----4---6---|8-----9-----8-----8-----4---6---|
A |----6-----6-----6-----6---6-----|----6-----6-----6-----6---6-----|
E |--------------------------------|--------------------------------|
B |--------------------------------|--------------------------------|

B |------------------------------------|------------------------------------|
F#|------------------------------------|------------------------------------|
D |11-----12-----11-----11-----7---9---|11-----12-----11-----11-----7---9---|
A |-----9------9------9------9---9-----|-----9------9------9------9---9-----|(x2)
E |------------------------------------|------------------------------------|
B |------------------------------------|------------------------------------|

B |--------------------------------|--------------------------------|
F#|--------------------------------|--------------------------------|
D |8-----9-----8-----8-----4---6---|8-----9-----8-----8-----4---6---|
A |----6-----6-----6-----6---6-----|----6-----6-----6-----6---6-----|
E |--------------------------------|--------------------------------|
B |--------------------------------|--------------------------------|

B |--------------------------------|--------------------------------|
F#|--------------------------------|--------------------------------|
D |5-----6-----5-----5-----1---3---|5-----6-----5-----5-----1---3---|
A |----3-----3-----3-----3---3-----|----3-----3-----3-----3---3-----|
E |--------------------------------|--------------------------------|
B |--------------------------------|--------------------------------|

B |-------------------------------------------------|
F#|-------------------------------------------------|
D |20-20-20-20-20-20-20-20--20-20-20-20b21-21-21-21-|
A |-------------------------------------------------|(x4)
E |18-18-18-18-18-18-18-18--18-18-18-18b19-19-19-19-|
B |-------------------------------------------------|


************************************

| h   Hammer-on
| p   Pull-off
| t   Tapping
| b   Bend
| \   Slide down
| PM  Palm mute
| N   Tremolo

************************************

            
            
Suggest correction
Creating personal tab
Creating personal tab
You can edit any tab online and save it as your Personal.

You can edit, replace or remove any tab part or add personal notes – all changes will be seen only by you.

Personal tabs can be accessed anytime from any device, even offline.
Learn more »
Give kudos to tab author, rate the tab!
1 2 3 4 5
comments
print report bad tab
1 comment total.
0 reply
LMBozovich 936 Jun 24, 2017 01:16 AM

Guys, gals, thanks for viewing this tab. Make sure to rate.

guest
You may want to rate the tab now too:
select rating
Wanna post a correction for this tab? Suggest correction