Oops, an error
Loading. Please wait.

Station Tab

7,090 views 24 this week
2 commentsread comments
1 2 3 4 5
accurate
x 3
add to favorites
launch autoscroll
font size
0
reset
how to read this tab
guitar tuner
Tab Pro tools
  • play this tab
  • loop segment
  • change instrument
  • show fretboard
  • metronome
×
Best way to learn
"Station"
Autoscroll
slow
fast
+/-
esc
set tempo
stop
Contributor
Difficulty
Tuning
intermediate
C# G# C# F# A# D#
-------------------------------------------------------------------------------
                             Station – Russian Circles
-------------------------------------------------------------------------------
Tabbed by: Pr0gR0ckFan
Email: green1day1fan@yahoo.com

Tuning: Drop C# [ C# G# C# F# A# D# ]

Listen for rhythm, changes in dynamics, etc.


1st Movement
Time Signature-6/8

Intro
||-------------------------||
||-------------------------||
||-------------------------||
||-------------------------|| x32
||-5-----5-----5-----5-----||
||---0-0---0-0---0-0---0-0-||
pm   . .   . .   . .   . .

Verse

||-------------------------|-------------------------|
||-------------------------|-------------------------|
||-------------------------|-------------------------|
||---7---8p7-7---7---5h7-7-|---7---8p7-7-8-7-8-5-5-5-|
||---5---5---5---5---5---5-|---5---5---5-5-5-5-5-5-5-|
||-0-----------0-----------|-0-----------------------|

|-------------------------|-------------------------|
|-------------------------|-------------------------|
|-------------------------|-------------------------|
|---7---8p7-7---7---5h7-7-|-8-8-8-8-8-8-5-5-5-8-8-8-|
|---5---5---5---5---5---5-|-6-6-6-6-6-6-3-3-3-6-6-6-|
|-0-----------0-----------|-------------------------|

|-------------------------|-------------------------|
|-------------------------|-------------------------|
|-------------------------|-------------------------|
|---7---8p7-7---7---5h7-7-|---7---8p7-7-8-7-8-5-5-5-|
|---5---5---5---5---5---5-|---5---5---5-5-5-5-5-5-5-|
|-0-----------0-----------|-0-----------------------|

|-------------------------|-------------------------||
|-------------------------|-------------------------||
|-------------------------|-------------------------||
|---7---8p7-7---7---5h7-7-|-8-8-8-8-8-8-8-8-8-8-8-8-|| x2
|---5---5---5---5---5---5-|-5-5-5-5-5-5-5-5-5-5-5-5-||
|-0-----------0-----------|-------------------------||

Chorus

||-------------------------------------|
||-------------------------------------|
||-------------------------------------|
||-12-12-12-12-12-12-12-12-12-12-12-12-|
||-10-10-10-10-10-10-10-10-10-10-10-10-|
||-------------------------------------|

|-------------------------------------|
|-------------------------------------|
|-------------------------------------|
|-13-13-13-13-13-13-13-13-13-13-13-13-|
|-10-10-10-10-10-10-10-10-10-10-10-10-|
|-------------------------------------|

|-------------------------------------|
|-------------------------------------|
|-------------------------------------|
|-12-12-12-12-12-12-12-12-12-12-12-12-|
|-10-10-10-10-10-10-10-10-10-10-10-10-|
|-------------------------------------|

|-------------------------------------||
|-------------------------------------||
|-------------------10-10-10----------||
|-13-13-13-13-13-13-10-10-10-13-13-13-|| x4
|-10-10-10-10-10-10-10-10-10-10-10-10-||
|-------------------------------------||

On the 4th repeat, replace the last measure with the measure below

|-------------------------------------|
|-------------------------------------|
|-13-13-13-13-13-13-13-13-13-13-13-13-|
|-13-13-13-13-13-13-13-13-13-13-13-13-|
|-11-11-11-11-11-11-11-11-11-11-11-11-|
|-------------------------------------|

Play Verse once
Repeat Chorus x4

Bridge 1

||---------------------------------||
||---------------------------------||
||---------------------------------||
||-13------13------13------13------|| x3
||------10------10------10------10-||
||---------------------------------||

|---------------------------------|
|---------------------------------|
|-----------------12------10------|
|-13------13----------------------|
|------10------10------10------10-|
|---------------------------------|

||---------------------------------||
||---------------------------------||
||---------------------------------||
||-12------12------12------12------|| x3
||------10------10------10------10-||
||---------------------------------||

|---------------------------------|
|---------------------------------|
|-----------------12------10------|
|-12------12----------------------|
|------10------10------10------10-|
|---------------------------------|

||---------------------------------||
||---------------------------------||
||---------------------------------||
||-13------13------13------13------|| x8
||------10------10------10------10-||
||---------------------------------||

Repeat the measure above 8 times with intro riff played over it
Repeat the measure above 4 times by itself

Bridge 2
The open notes are palm muted, with a few exceptions.

||-------------------------||
||-------------------------||
||-------------------------||
||-7-----7-----7-----7-----|| x4
||-5-----5-----5-----5-----||
||---0-0---0-0---0-0---0-0-||

|-------------------------|-------------------------|
|-------------------------|-------------------------|
|-------------------------|-------------------------|
|-7-----7-----7-----7-----|-7-----7-----7-----7-7-7-|
|-5-----5-----5-----5-----|-5-----5-----5-----5-5-5-|
|---0-0---0-0---0-0---0-0-|---0-0---0-0---0-0-------|

|-------------------------|-------------------------|
|-------------------------|-------------------------|
|-------------------------|-------------------------|
|---7---7---7---7---7---7-|-7-7-7-7-7-7-8-8-8-8-8-8-|
|---5---5---5---5---5---5-|-5-5-5-5-5-5-5-5-5-5-5-5-|
|-0-----------0-----------|-------------------------|

||-----------------------------|-------------------------------|
||-----------------------------|-------------------------------|
||-14------14-----14-----14----|-15------15-----15----12-12-15-|
||-----------------------------|-------------------------------|
||-12------12-----12-----12----|-13------13-----13----10-10-13-|
||----0-0----0-0----0-0----0-0-|----0-0----0-0----0-0----------|

|-----------------------------|------------------------------||
|-----------------------------|------------------------------||
|-14------14-----14-----14----|-------10-10-10-------9--9--9-||
|-----------------------------|-------8--8--8--------7--7--7-|| x2
|-12------12-----12-----12----|-8-8-8-8--8--8--7-7-7-7--7--7-||
|----0-0----0-0----0-0----0-0-|-8-8-8-8--8--8--7-7-7-7--7--7-||

||-------------------------|-------------------------|
||-------------------------|-------------------------|
||-------------------------|-------------------------|
||-7-----7-----7-----7-----|-7-----7-----7-----7-----|
||-5-----5-----5-----5-----|-5-----5-----5-----5-----|
||---0-0---0-0---0-0---0-0-|---0-0---0-0---0-0---0-0-|

|-------------------------|------------------------------||
|-------------------------|------------------------------||
|-------------------------|-------10-10-10-------9--9--9-||
|-7-----7-----7-----7-----|-------8--8--8--------7--7--7-|| x2
|-5-----5-----5-----5-----|-8-8-8-8--8--8--7-7-7-7--7--7-||
|---0-0---0-0---0-0---0-0-|-8-8-8-8--8--8--7-7-7-7--7--7-||

Outro

|-------------------------|
|-------------------------|
|-------7-----------------|
|-5-----5-----------------|
|-5-----5-----------------|
|-5-----5-----------------|

|-------------------------|
|-------------------------|
|-------5-----------------|
|-3-----3-----------------|
|-3-----3-----------------|
|-3-----3-----------------|


|-------------------------|
|-------------------------|
|-------2-----------------|
|-0-----0-----------------|
|-0-----0-----------------|
|-0-----0-----------------|

|-------------------------|
|-------------------------|
|-------3-----------------|
|-1-----1-----------------| x2
|-1-----1-----------------|
|-1-----1-----------------|

2nd Movement
4/4

Guitar 1
||-----------------------|-----------------------||
||-----------------------|-----------------------||
||-----------------------|-----------------------||
||-8----------8----------|-8----------8----------|| x4
||---10-10-10---10-10-10-|---10-10-10---10-10-10-||
||-----------------------|-----------------------||

||-----------------------|-----------------------|
||-----------------------|-----------------------|
||-----------------------|-----------------------|
||-8----------8----------|-8----------8----------|
||---10-10-10---10-10-10-|---10-10-10---10-10-10-|
||-----------------------|-----------------------|

|-----------------|-----------------||
|-----------------|-----------------||
|-----------------|-----------------||
|-7-------7-------|-7-------7-------|| x4
|---8-8-8---8-8-8-|---8-8-8---8-8-8-||
|-----------------|-----------------||

Repeat the riff above with slight alterations. For example:

||-----------------------|------------------------|
||-----------------------|------------------------|
||-----------------------|------------------------|
||-8----------8----------|-8-------10-10----------|
||---10-10-10---10-10-10-|---10-10-------10-10-10-|
||-----------------------|------------------------|

|-----------------|-----------------||
|-----------------|-----------------||
|-----------------|-----------------||
|-7-------7-------|-7---8---7---8---|| x2
|---8-8-8---8-8-8-|---8---8---8---8-||
|-----------------|-----------------||

||---------------------|------------------------|
||---------------------|------------------------|
||---------------------|------------------------|
||-8-------8-8-------8-|-8-------10-10----------|
||---10-10-----10-10---|---10-10-------10-10-10-|
||---------------------|------------------------|

|-----------------|-----------------||
|-----------------|-----------------||
|-----------------|-----------------||
|-7-----7-7-----7-|-10--8---7---8---|| x4
|---8-8-----8-8---|---8---8---8---8-||
|-----------------|-----------------||

Repeat the riff above 8 times with the following chords played over it. This might be 
by the bass with distortion:

Guitar 2 or Bass
|---|        |---|        |---|        |----|       |----|
|---|        |---|        |---|        |----|       |----|
|---|   2    |---|   2    |---|   2    |----|   1   |----|   1
|-5-|measures|-7-|measures|-8-|measures|-10-|measure|-12-|measure
|-5-|        |-7-|        |-8-|        |-10-|       |-12-|
|-5-|        |-7-|        |-8-|        |-10-|       |-12-|

I think this is played over it, too. Each octave chord corresponds to the chords above:

Guitar 3
|-------------------------------------------------|
|-------------------------------------------------|
|-12-12-12-12-12-12-12-12-12-12-12-12-12-12-12-12-|
|-------------------------------------------------| x2
|-10-10-10-10-10-10-10-10-10-10-10-10-10-10-10-10-|
|-------------------------------------------------|

|-------------------------------------------------|
|-------------------------------------------------|
|-14-14-14-14-14-14-14-14-14-14-14-14-14-14-14-14-|
|-------------------------------------------------| x2
|-12-12-12-12-12-12-12-12-12-12-12-12-12-12-12-12-|
|-------------------------------------------------|

|-------------------------------------------------|
|-------------------------------------------------|
|-15-15-15-15-15-15-15-15-15-15-15-15-15-15-15-15-|
|-------------------------------------------------| x2
|-13-13-13-13-13-13-13-13-13-13-13-13-13-13-13-13-|
|-------------------------------------------------|

|-------------------------------------------------|
|-------------------------------------------------|
|-17-17-17-17-17-17-17-17-17-17-17-17-17-17-17-17-|
|-------------------------------------------------|
|-15-15-15-15-15-15-15-15-15-15-15-15-15-15-15-15-|
|-------------------------------------------------|

|-------------------------------------------------|
|-------------------------------------------------|
|-19-19-19-19-19-19-19-19-19-19-19-19-19-19-19-19-|
|-------------------------------------------------|
|-17-17-17-17-17-17-17-17-17-17-17-17-17-17-17-17-|
|-------------------------------------------------|


End on these chords:

Guitar 2
|----|
|----|
|-14-|
|-12-|
|-12-|
|-12-|

Guitar 3
|----|
|----|
|-19-|
|----|
|-17-|
|----|

This is a fun song to play, but for the full experience try to find a drummer to play with.

This is my first tab. Let me know what you think.
comments
We did not receive enough feedback on this tab! Please rate:
print report bad tab
1 2 3 4 5
2 comments total.
0 reply
AWACS wrote on April 7 2011, 09:43 pm

I'm pretty sure this should be in DADGAD tuning. Your a half step flat here. If possible could you re-tab out the song? I really want to learn this.

0 reply
Pr0gR0ckFan wrote on June 12 2012, 01:42 pm

If its in DADGAB tuning then just play this tab in that tuning. The notes in this tab are accurate in relation to each other, even if its a half step flat compared to the Russian Circles version. But I think their version is also in this half step down tuning.

I want to post or [tab]
guest
You may want to rate the tab now too:
select rating
Please do not post tabs as comments. Select "correction" instead!