Oops, an error
Loading. Please wait.

Versus Bass Tab

2,984 views 1 this week
no commentswrite comment
1 2 3 4 5
1 last vote to show rating
add to favorites
launch autoscroll
font size
0
reset
guitar tuner
Autoscroll
slow
fast
+/-
esc
set tempo
stop
Help us to improve Ultimate-Guitar.com Take our survey!
×
Difficulty
Tuning
novice
D A D G B E
Russian Circles – Versus 

Very simple song. Easy to improve and work off the keynotes, if you would like to 
make it more interesting.

Drop D Tuning.

0:32

 [ Fade in, and then out. ]
G|--------------------------------------------------|
D|5r------------------5------------5r---------------|
A|-------------5-------------3----------------------|
D|--------------------------------------------------|


1:38
G|---------------------------------|
D|--------5------------5r----------|
A|5-------------3------------------| x9 [ I think? ]
D|---------------------------------|

3:26

G|---------------------------------|
D|5--------------------------------|
A|------5-------2------3-----------|
D|---------------------------------|

3:38

G|---------------------------------|
D|5r-------------------------------|
A|---------------------------------|
D|---------------------------------|

3:50

G|---------------------------------|
D|5--------------------------------|
A|------5-------7------7---3-------| x6 [ I think? ]
D|---------------------------------|

5:19

 [ Fade out ]
G|---------------------------------|
D|5r-------------------------------|
A|---------------------------------|
D|---------------------------------|

5:49

G|------------------|
D|9-------5---------| x4 
A|------------------|
D|------------------|
6:14

G|----------------------------|
D|----------------------------|
A|2---------------------------| x7
D|-------5------4-----4--2----|


8:06

G|------------------|
D|------------------|
A|2r----------------|
D|------------------|

Enjoy.

Please email me any corrections, suggestions, or recommendations at: 

the.lonesome.crowded.west@hotmail.com
Suggest correction
Give kudos to tab author, rate the tab!
1 2 3 4 5
comments
print report bad tab
guest
You may want to rate the tab now too:
select rating
Wanna post a correction for this tab? Suggest correction