Oops, an error
Loading. Please wait.

Xavii Tab

version 2
version 2

Whole song

2,581 views 3 this week
no commentswrite comment
1 2 3 4 5
excellent!
x 8
add to favorites
launch autoscroll
font size
0
reset
how to read this tab
guitar tuner
Tab Pro tools
  • play this tab
  • loop segment
  • change instrument
  • show fretboard
  • metronome
×
Best way to learn
"Xavii"
Autoscroll
slow
fast
+/-
esc
set tempo
stop
Contributor
"Xavii"
Russian Circles
Station
2008
DADGAD Tuning

A beautiful song by Russian Circles. The intro is pretty simple, but the fingering gets 
a little difficult later on in the song. This tab sounds dead on to me and I'm very 
proud of it :)

Intro
d|-------0---------|-----------------|-------0---------|
A|-----------------|-----------------|-----------------|
G|----3------------|----0--3---------|----3-----3------|
D|-----------------|-----------------|-----------------|
A|-----------------|-----------------|-1---------------|
D|-5---------------|-1---------------|-----------------|

d|-----------------|-----------------|-------0---------|
A|-----------------|-----------------|-----------------|
G|-----------------|-----------------|----3------------|
D|-----------------|-----------------|-----------------|
A|-3---------------|-1-------0-------|-----------------|
D|-----------------|-----------------|-5---------------|

d|-----------------|-------0---------|-----------------|
A|-----------------|-----------------|-----------------|
G|----0--3---------|----3-----3------|-----------------|
D|-----------------|-----------------|-----------------|
A|-----------------|-1---------------|-3---------------|
D|-1---------------|-----------------|-----------------|

d|-----------------|-----------------|-----------------|
A|-----------------|-----------------|-----------------|
G|-----------------|-----------------|-----------------|
D|-----------------|-----------------|-----------------|
A|-1-------0-------|-----------------|-6--6------------|
D|-----------------|-5---------------|-----------------|

d|-----------------|-----------------|-----------------|
A|-----------------|-----------------|-----------------|
G|-----------------|-----------------|-----------------|
D|-----------------|-----------------|-----------------|
A|-5--5------------|-3---------------|-1-------0-------|
D|-----------------|-----------------|-----------------|

d|-----------------|-----------------|-----------------|
A|-----------------|-----------------|-----------------|
G|-----------------|-----------------|-----------------|
D|-----------------|-----------------|-----------------|
A|-----------------|-6--6------------|-5--5------------|
D|-5---------------|-----------------|-----------------|

d|-----------------|-----------------|-------0---------|
A|-----------------|-----------------|-----------------|
G|-----------------|-----------------|----3------------|
D|-----------------|-----------------|-----------------|
A|-3---------------|-1-------0-------|-----------------|
D|-----------------|-----------------|-5---------------|

d|----1--0---------|-------0---------|-----------------|
A|-----------------|-----------------|-----------------|
G|-----------------|----3-----3------|-----------------|
D|-1---------------|-----------------|-----------------|
A|-----------------|-1---------------|-3-----6----8----|
D|-----------------|-----------------|-----------------|

The fun part!
d|------------15----15---------7---10---7-----------0---|
A|---------13----13----13----8---8----8---8/6---5h6---6-|
G|----0-------------------------------------------------|
D|------12----------------------------------------------|
A|-13----------------------8------------------6---------|
D|------------------------------------------------------|

d|------8---------0---------0--------------15----15----|
A|---6----6/5---5---5/3---3---0---------13----13----13-|
G|---------------------------------0-------------------|
D|-----------------------------------12----------------|
A|-6----------5---------3-------13---------------------|
D|-----------------------------------------------------|

d|----7---10---7-----------0-------8---------0---------0---|
A|--8---8----8---8/6---5h6---6---6---6/5---5---5/8---8---0-|
G|---------------------------------------------------------|
D|---------------------------------------------------------|
A|-8-----------------6---------6---------5---------8-------|
D|---------------------------------------------------------|

Variation of the intro
d|-----------------|-3---------------|-3---------------|
A|-------5-------5-|---5/3-----------|-----------------|
G|----3-----3------|---------3--0--3-|---3--0--3-----3-|
D|-----------------|-----------------|-----------------|
A|-----------------|-----------------|------------1----|
D|-5---------------|-------1---------|-----------------|

d|-0-----3-----0---|-----------------|-----------------|
A|-----------------|---------3-------|-----------------|
G|----3-----3------|-3/5---5---5/8---|-8-----7-------3-|
D|-----------------|-----------------|-----------------|
A|-----------------|-----3---------6-|----5------------|
D|-----------------|-----------------|------------5----|

d|-------------3---|---------0---8---|-5----------0----|
A|-5-------5-------|-5/6---6---6---6-|---6-------------|
G|----3------------|-----------------|---------3-----3-|
D|-----------------|-----------------|-----------------|
A|-----------------|-----6-----------|------1----------|
D|-----------------|-----------------|-----------------|

d|-3-----0---------|--------------------|
A|-----------------|---3----------------|
G|----3-----3/5----|-5---5/8----8-----7-|
D|-----------------|--------------------|
A|--------------3--|---------6-----5----|
D|-----------------|--------------------|

Basically the same part as above, with a different ending
d|-----------------|-3---------------|-3---------------|
A|-------5-------5-|---5/3-----------|-----------------|
G|----3-----3------|---------3--0--3-|---3--0--3-----3-|
D|-----------------|-----------------|-----------------|
A|-----------------|-----------------|------------1----|
D|-5---------------|-------1---------|-----------------|

d|-0-----3-----0---|-----------------|-----------------|
A|-----------------|---------3-------|-----------------|
G|----3-----3------|-3/5---5---5/8---|-8-----7-------3-|
D|-----------------|-----------------|-----------------|
A|-----------------|-----3---------6-|----5------------|
D|-----------------|-----------------|------------5----|

d|-------------3---|---------0---8---|-5----------0----|
A|-5-------5-------|-5/6---6---6---6-|---6-------------|
G|----3------------|-----------------|---------3-----3-|
D|-----------------|-----------------|-----------------|
A|-----------------|-----6-----------|------1----------|
D|-----------------|-----------------|-----------------|

d|-3-----0---------|---------------------|
A|-----------------|---3-----------------|
G|----3-----3/5----|-5---5/8----8-----10-|
D|-----------------|---------------------|
A|--------------3--|---------6-----8-----|
D|-----------------|---------------------|

The outro is just a variation of these chords:
   G5    Gsus4   Gm  Gsus2
d|------|------|------|------|
A|------|------|------|------|
G|------|-5----|------|------|
D|-5----|-x----|-8----|-7----|
A|-5----|-5----|-5----|-5----|
D|-5----|-5----|-5----|-5----|

That's it, thanks for checking my tab out!
comments
print report bad tab
I want to post or [tab]
guest
You may want to rate the tab now too:
select rating
Please do not post tabs as comments. Select "correction" instead!