Oops, an error
Loading. Please wait.

Ecstacy bass

2,342 views 15 this week
no commentswrite comment
1 2 3 4 5
1 last vote to show rating
add to favorites
×
Save as Personal and add changes to this tab that will be seen only by you. Learn more ›
×
You can save this tab as Personal to edit and correct it or add notes. All changes will be seen only by you. Learn more »
launch autoscroll
font size
0
reset
guitar tuner
edit
Autoscroll
slow
fast
+/-
esc
set tempo
stop
Rusted Root
Ecstacy
Tabbed by Tim McGivern

This is the main line that runs all the way through the song.  There are lots of 
variations of this line over and over a gain.

|-------------------------|-----5-5/7-5--------------------|
|.---7-----7-----7-----7--|---5--------------55-/7-5h7-5-7-|
|.-5-----5-----5----5-5--5|-3-------------5----------------|
|------5-----5-----5-5----|-------------3------------------|
|-------------------------|--------------------------------|
Variation example: (2nd time through in song)

|--------/13\/14------------|----------------------------|
|.---7-------------7-----7--|---5------5-----------------|
|.-5-------------5----5-5--5|-3----3-3---3---5------5----|
|------5-------------5-5----|-----3-3------3----3-3---3--|
|---------------------------|------------------3-3-------|
that's pretty much the whole song. lots of variations with the rhythem of the notes 
but thats the first two cycles.
the rest of the song is easy to figure out.

            
            
Suggest correction
Creating personal tab
Creating personal tab
You can edit any tab online and save it as your Personal.

You can edit, replace or remove any tab part or add personal notes – all changes will be seen only by you.

Personal tabs can be accessed anytime from any device, even offline.
Learn more »
Give kudos to tab author, rate the tab!
1 2 3 4 5
comments
print report bad tab
guest
Wanna post a correction for this tab? Suggest correction