Oops, an error
Loading. Please wait.
We have Chord Pro version of Send Me On My Way.
It's the closest thing you can get to the original song and it has interactive parts. Check out the tab »
×

Send Me On My Way intro tab

version 1
version 1

Intro

  • Intro: Slightly more complicated, some extra notes... Show more

Whole song

Interactive

Video

  • How to play the intro with tips on how to progress... Show more
2,896 views 15 this week
no commentswrite comment
1 2 3 4 5
x 4
add to favorites
×
Save as Personal and add changes to this tab that will be seen only by you. Learn more ›
×
You can save this tab as Personal to edit and correct it or add notes. All changes will be seen only by you. Learn more »
launch autoscroll
font size
0
reset
how to read this tab
guitar tuner
edit
Autoscroll
slow
fast
+/-
esc
set tempo
stop
Author
Difficulty
-------------------------------------------------------------------------------
			     SEND ME ON MY WAY - Rusted Root
-------------------------------------------------------------------------------
Tabbed by: E. Wilson
I didn't like the other tabs on here. They didn't sound right and are in no way what he plays live.

Tuning: Standard EADGBe

* - For the pull-off, its very quick. The bass note with the thumb doesn't skip a beat.
v - Lyrics for this section don't come in until here.


*INTRO*
   C                          *      F
e|-------3---3-----------3---3p0-----------3---3-----------3~----------------|
B|-1-----------3-3-1---------------3-1-----------3-3-1----------1------------|
G|----0---------------0----------0------2---------------2---------2----------|
D|-----------------------------------3-3-3-3-3-3-3-3-3-3-3-3--------3--------| 
A|-3-3-3-3-3-3-3-3-3-3-3-3-3-3---3-3-----------------------------------------|
E|---------------------------------------------------------------------------|
   C          *                 *      F          *
e|-------3---3p0-----------3---3p0-----------3---3p0-----------3~------------|
B|-1---------------3-1---------------3-1---------------3-1----------1--------|
G|----0----------0------0----------0------2----------2------2---------2------|
D|-------------------------------------3-3-3-3-3-3---3-3-3-3-3-3--------3----| 
A|-3-3-3-3-3-3---3-3-3-3-3-3-3-3---3-3---------------------------------------|
E|---------------------------------------------------------------------------|

______________________________________________________________________________


Lyrics start here:  "I would like to...."
   C
e|-------3---3-----------3---3-----------3---3-----------3---3---------------|
B|-1-----------3-3-1-----------3-3-1-----------3-3-1-----------3-3-----------|
G|----0---------------0---------------0---------------0----------------------|
D|---------------------------------------------------------------------------|
A|-3-3-3-3-3-3-3-3-3-3-3-3-3-3-3-3-3-3-3-3-3-3-3-3-3-3-3-3-3-3-3-3-----------|
E|---------------------------------------------------------------------------|

"You know what they say about the young.."
   F                           v
e|-------3---3-----------3---3-----------3---3-----------3---3---------------|
B|-1-----------3-3-1-----------3-3-1-----------3-3-1-----------3-3-----------|
G|----2---------------2---------------0---------------0----------------------|
D|-3-3-3-3-3-3-3-3-3-3-3-3-3-3-3-3-------------------------------------------| 
A|---------------------------------3-3-3-3-3-3-3-3-3-3-3-3-3-3-3-3-----------|
E|---------------------------------------------------------------------------|

"Pick me up with...."
   C
e|-------3---3-----------3---3-----------3---3-----------3---3---------------|
B|-1-----------3-3-1-------------3-1-----------3-3-1-------------3-----------|
G|----0---------------0--------0------0---------------0--------0-------------|
D|---------------------------------------------------------------------------|
A|-3-3-3-3-3-3-3-3-3-3-3-3-3-3-3-3-3-3-3-3-3-3-3-3-3-3-3-3-3-3-3-3-----------|
E|---------------------------------------------------------------------------|

"You know what they say about the young.."
   F                           v
e|-------3---3-----------3---3-----------3---3-----------3---3---------------|
B|-1-----------3-3-1-----------3-3-1-----------3-3-1-----------3-3-----------|
G|----2---------------2---------------0---------------0----------------------|
D|-3-3-3-3-3-3-3-3-3-3-3-3-3-3-3-3-------------------------------------------| 
A|---------------------------------3-3-3-3-3-3-3-3-3-3-3-3-3-3-3-3-----------|
E|---------------------------------------------------------------------------|


            
            
Suggest correction
Creating personal tab
Creating personal tab
You can edit any tab online and save it as your Personal.

You can edit, replace or remove any tab part or add personal notes – all changes will be seen only by you.

Personal tabs can be accessed anytime from any device, even offline.
Learn more »
comments
print report bad tab
guest
You may want to rate the tab now too:
select rating
Wanna post a correction for this tab? Suggest correction