Oops, an error
Loading. Please wait.
We have Chord Pro version of Send Me On My Way.
It's the closest thing you can get to the original song and it has interactive parts. Check out the tab »
×
151 views 30 this week
no commentswrite comment
1 2 3 4 5
3 more votes to show rating
add to favorites
×
Save as Personal and add changes to this tab that will be seen only by you. Learn more ›
×
You can save this tab as Personal to edit and correct it or add notes. All changes will be seen only by you. Learn more »
launch autoscroll
font size
0
reset
transpose
0
reset
display chords
guitar tuner
edit
Autoscroll
slow
fast
+/-
esc
set tempo
stop
Strumming
There is no strumming pattern for this song yet. and get +5 IQ
[Intro]
A|-------------3-3-3-------------5-5-5--|
E|-------3--3--------------3--3---------|
C|-0------------------0-----------------|
G|----0------------------0--------------|
                                        
A|-3-----------5-5-5--3---------5------|
E|-1-----3--3---------1----3--3--------|
C|-------------------------------------|
G|----2------------------2-------------|
on my way, on my way, on my way
 
[Verse]
  C               C                  C              C                 F
A|-------------3-3-3-------------5-5-5-----------3-3-3---------5-5-5-|
E|-------3--3--------------3--3--------------3-3-----------3-3-------|
C|-0------------------0------------------0-------------0-------------|
G|----0------------------0-----------------0-------------0-----------|
  I would like to reach out ma hand, i may say you, i may tell you to run
                                                                 
                                                              F      
A|-3-----------5-5-5--3---------5-5-5-3----------5-5-5-3--------5-5-5-|
E|-1-----3--3---------1----3--3-------1----3-3---------1---3-3--------|
C|--------------------------------------------------------------------|
G|----2------------------2--------------2----------------2------------|
                             You know what they say about the young
           
     C               C            C               C                 F                                                      
A|-------------3-3-3-------------5-5-5-----------3-3-3---------5-5-5-|
E|-------3--3--------------3--3--------------3-3-----------3-3-------|
C|-0------------------0------------------0-------------0-------------|
G|----0------------------0-----------------0-------------0-----------|
 Well pick me up with golden hands, i may say you, i may tell you to run                                                             
 
                                                              C
A|-------------3-3-3-------------5-5-5-----------3-3-3---------5-5-5-|
E|-------3--3--------------3--3--------------3-3-----------3-3-------|
C|-0------------------0------------------0-------------0-------------|
G|----0------------------0-----------------0-------------0-----------|
                             You know what they say about the young
 
[Chorus]
      Am                G   F
Well, I would like to hold my little hand
Am                   G             F
How we will run away, how we will crawl away
Am               G   F
I would like to hold my little hand
Am                 G              F
How we will run away how we will craaaaaaaaaaaaaaawl
 
[Bridge]
  C                    C
A|-------------3-3-3-------------5-5-5-|
E|-------3--3--------------3--3--------|
C|-0------------------0----------------|
G|----0------------------0-------------|
  Sendmeonmaway        Sendmeonmaway
              
  F                    F
A|-3-----------5-5-5--3---------5-5-5-|
E|-1-----3--3---------1----3--3-------|
C|------------------------------------|
G|----2------------------2------------|
  Sendmeonmaway        Sendmeonmaway
 
F
Hmmmmmmm
 
[Verse]
C
I would like to reach out my hand, I may see you, I may tell you to run
F
You know what they say bout the young - very fast -
C
Well pick me up with a golden hand, I may see you, I may tell you to run
F
You know what they say bout the youg - very fast -
 
[Chorus]      
Am                G   F
Well, I would like to hold my little hand
Am                   G             F
How we will run away, how we will crawl away
Am               G   F
I would like to hold my little hand
Am                 G              F
How we will run away how we will craaaaaaaaaaaaaaawl
 
[Bridge]
  C                    C
A|-------------3-3-3-------------5-5-5-|
E|-------3--3--------------3--3--------|
C|-0------------------0----------------|
G|----0------------------0-------------|
  Sendmeonmaway        Sendmeonmaway
              
  F                    F
A|-3-----------5-5-5--3---------5-5-5-|
E|-1-----3--3---------1----3--3-------|
C|------------------------------------|
G|----2------------------2------------|
  Sendmeonmaway        Sendmeonmaway
 
F
Hmmmmmmm
 
[Chorus]
      Am                G   F
Well, I would like to hold my little hand
Am                   G             F
How we will run away, how we will crawl away
Am               G   F
I would like to hold my little hand
Am                 G              F
How we will run away how we will craaaaaaaaaaaaaaawl
 
[Outro]
Am
Send me on my way
F
Send me on my way
           C          G
Send me on my waaaaaaaaaay
 
C           C                       F      G   
Ohh oooooh, oh ooooooooooooooooooh, oh oh, oh ohoooooooooooooo
Am          Am                      F      G
Ohh oooooh, oh ooooooooooooooooooh, oh oh, oh ohoooooooooooooo
                                         
A|-------------3-3-3-------------5-5-5--|
E|-------3--3--------------3--3---------|
C|-0------------------0-----------------|
G|----0------------------0--------------|
                                        
A|-3-----------5-5-5--3---------5------|
E|-1-----3--3---------1----3--3--------|
C|-------------------------------------|
G|----2------------------2-------------|
        
  C               C                  C              C                F                                                              
A|-------------3-3-3-------------5-5-5-----------3-3-3---------5-5-5-|
E|-------3--3--------------3--3--------------3-3-----------3-3-------|
C|-0------------------0------------------0-------------0-------------|
G|----0------------------0-----------------0-------------0-----------|
  I would like to reach out ma hand, i may say you, i may tell you to run
       
   - no chord -                                                 C 
A|-3-----------5-5-5--3---------5-5-5-3----------5-5-5-3--------5-5-5---|
E|-1-----3--3---------1----3--3-------1----3-3---------1---3-3----------|
C|--------------------------------------------------------------------0-|
G|----2------------------2--------------2----------------2--------------|
                             You know what they say about the young

            
            
Suggest correction
Creating personal tab
Creating personal tab
You can edit any tab online and save it as your Personal.

You can edit, replace or remove any tab part or add personal notes – all changes will be seen only by you.

Personal tabs can be accessed anytime from any device, even offline.
Learn more »
Give kudos to tab author, rate the tab!
1 2 3 4 5
comments
print report bad tab
guest
Wanna post a correction for this tab? Suggest correction