Oops, an error
Loading. Please wait.
We have Chord Pro version of Send Me On My Way.
It's the closest thing you can get to the original song and it has interactive parts. Check out the tab »
×

Send Me On My Way tab

version 3
version 3

Whole song

Interactive

Video

  • How to play the entire song with TABs and chord progressions.
170,067 views 252 this week
10 commentsread comments
1 2 3 4 5
x 133
add to favorites
×
Save as Personal and add changes to this tab that will be seen only by you. Learn more ›
×
You can save this tab as Personal to edit and correct it or add notes. All changes will be seen only by you. Learn more »
launch autoscroll
font size
0
reset
how to read this tab
guitar tuner
edit
Autoscroll
slow
fast
+/-
esc
set tempo
stop
Author
Difficulty
intermediate
The other two versions havent quite got it right, so i thought i'd post my version

Rusted Root, Legendary song sing along if u know the words (apologies if the lyrics are 
but you try listening to them)

[Intro] x2

e|-------3--3--------------3--3---------|
B|-1-----------1-1-1--1----------3-3-3--|
G|----0------------------0--------------|
D|--------------------------------------|
A|-3------------------3-----------------|
E|--------------------------------------|

e|-------3--3--------------3--3--------|
B|-1-----------3-3-3--1---------3------|(hold)
G|----2------------------2-------------|
D|-3------------------3----------------|
A|-------------------------------------|
E|-------------------------------------|

on my way, on my way, on my way


[Verse]

e|-------3--3--------------3--3--------------3-3-----------3-3-------|
B|-1-----------1-1-1--1----------3-3-3---1-------1-1-1-1-------3-3-3-|
G|----0------------------0-----------------0-------------0-----------|
D|-------------------------------------------------------------------|
A|-3------------------3------------------3-------------3-------------|
E|-------------------------------------------------------------------|
I would like to reach out ma hand, i may say you, i may tell you to run

e|-------3--3--------------3--3------------3-3-------------3-3--------|
B|-1-----------3-3-3--1---------3-3-3-1----------3-3-3-1--------3-3-3-|
G|----2------------------2--------------2----------------2------------|
D|-3------------------3---------------3----------------3--------------|
A|--------------------------------------------------------------------|
E|--------------------------------------------------------------------|
                            You know what they say about the young(very fast)

e|-------3--3--------------3--3--------------3-3-----------3-3-------|
B|-1-----------1-1-1--1----------3-3-3---1-------1-1-1-1-------3-3-3-|
G|----0------------------0-----------------0-------------0-----------|
D|-------------------------------------------------------------------|
A|-3------------------3------------------3-------------3-------------|
E|-------------------------------------------------------------------|
Well pick me up with golden hands, i may say you, i may tell you to run

e|-------3--3--------------3--3------------3-3-------------3-3--------|
B|-1-----------3-3-3--1---------3-3-3-1----------3-3-3-1--------3-3-3-|
G|----2------------------2--------------2----------------2------------|
D|-3------------------3---------------3----------------3--------------|
A|--------------------------------------------------------------------|
E|--------------------------------------------------------------------|
                            You know what they say about the young(very fast)


[Chorus]

(Just strum these)
      Am                G   F
Well, I would like to hold my little hand
Am                   G             F
How we will run away, how we will crawl away
Am               G   F
I would like to hold my little hand
Am                 G              F
How we will run away how we will craaaaaaaaaaaaaaawl


[Bridge] x2

e|-------3--3--------------3--3--------|
B|-1-----------1-1-1--1----------3-3-3-|
G|----0------------------0-------------|
D|-------------------------------------|
A|-3------------------3----------------|
E|-------------------------------------|
Sendmeonmaway        Sendmeonmaway

e|-------3--3--------------3--3-------|
B|-1-----------3-3-3--1---------3-3-3-|
G|----2------------------2------------|
D|-3------------------3---------------|
A|------------------------------------|
E|------------------------------------|
Sendmeonmaway        Sendmeonmaway
                      (mmmhhhhhhhhh)

Strumed chords
C
I would like to reach out my hand, I may see you, I may tell you to run
F
You know what they say bout the young (very fast)

C
Well pick me up with a golden hand, I may see you, I may tell you to run
F
You know what they say bout the youg (very fast)

[Chorus]
[Bridge]
[Instrumental]
[Chorus]


[Coda]

Am
Send me on my way
F
Send me on my way
           C          G
Send me on my waaaaaaaaaay

stick a couple of ooooos in

e|-------3--3--------------3--3---------|
B|-1-----------1-1-1--1----------3-3-3--|
G|----0------------------0--------------|
D|--------------------------------------|
A|-3------------------3-----------------|
E|--------------------------------------|

e|-------3--3--------------3--3--------|
B|-1-----------3-3-3--1---------3------|(hold)
G|----2------------------2-------------|
D|-3------------------3----------------|
A|-------------------------------------|
E|-------------------------------------|

e|-------3--3--------------3--3--------------3-3-----------3-3-------|
B|-1-----------1-1-1--1----------3-3-3---1-------1-1-1-1-------3-3-3-|
G|----0------------------0-----------------0-------------0-----------|
D|-------------------------------------------------------------------|
A|-3------------------3------------------3-------------3-------------|
E|-------------------------------------------------------------------|
I would like to reach out ma hand, i may say you, i may tell you to run

e|-------3--3--------------3--3------------3-3-------------3-3----------|
B|-1-----------3-3-3--1---------3-3-3-1----------3-3-3-1--------3-3-3-1-|
G|----2------------------2--------------2----------------2--------------|
D|-3------------------3---------------3----------------3----------------|
A|--------------------------------------------------------------------3-|
E|----------------------------------------------------------------------|
                            You know what they say about the young(very fast) 
Suggest correction
Creating personal tab
Creating personal tab
You can edit any tab online and save it as your Personal.

You can edit, replace or remove any tab part or add personal notes – all changes will be seen only by you.

Personal tabs can be accessed anytime from any device, even offline.
Learn more »
comments
print report bad tab
10 comments total. Showing first comments.
+6 reply
daniellemp 10 Jun 16, 2013 12:41 PM

Very good! I enjoyed this tab very much

0 reply
Caleb2017 10 Oct 22, 2013 12:42 PM

great tab!

+1 reply
Grisweld 10 Apr 15, 2014 02:55 PM

it should be 13 0 33 0

guest
You may want to rate the tab now too:
select rating
Wanna post a correction for this tab? Suggest correction