Oops, an error
Loading. Please wait.
We have Chord Pro version of Send Me On My Way.
It's the closest thing you can get to the original song and it has interactive parts. Check out the tab »
×

Send Me On My Way chords

version 5
version 5

Whole song

Interactive

Video

  • How to play the entire song with TABs and chord progressions.
226 views 1 this week
no commentswrite comment
1 2 3 4 5
1 last vote to show rating
add to favorites
×
Save as Personal and add changes to this tab that will be seen only by you. Learn more ›
×
You can save this tab as Personal to edit and correct it or add notes. All changes will be seen only by you. Learn more »
launch autoscroll
font size
0
reset
transpose
0
reset
display chords
guitar tuner
edit
Autoscroll
slow
fast
+/-
esc
set tempo
stop
Author
Strumming
There is no strumming pattern for this song yet. and get +5 IQ
[Intro]

  C
e|-------3--3--------------3--3---------|
B|-1-----------3-3----1----------3-3----|
G|----0------------------0--------------|
D|--------------------------------------|
A|-3------------------3-----------------|
E|--------------------------------------|

  F
e|-------3--3--------------3--3---------|
B|-1-----------3-3----1----------3-3----|
G|----2------------------2--------------|
D|-3------------------3-----------------|
A|--------------------------------------|
E|--------------------------------------|


[Verse 1]

(still fingerpicking)

C 
I would like to reach out my hand
C                                   F
I may see you, I may tell you to run (On my way, on my way)
C
You know what they say about the young.

     C
Well pick me up with golden hand
C                                   F
I may see you, I may tell you to run (On my way, on my way)
C
You know what they say about the young.


[Chorus]

(chords for the chorus)

      Am                G   F
Well, I would like to hold my little hand
Am                        G           F
How we will run, we will, how we will crawl, we will
Am               G   F
I would like to hold my little hand
Am                        G           F
How we will run, we will, how we will crawl

(back to fingerpicking)

  C
e|-------3--3--------------3--3---------|
B|-1-----------3-3----1----------3-3----|
G|----0------------------0--------------|
D|--------------------------------------|
A|-3------------------3-----------------|
E|--------------------------------------|

  F
e|-------3--3--------------3--3---------|
B|-1-----------3-3----1----------3-3----|
G|----2------------------2--------------|
D|-3------------------3-----------------|
A|--------------------------------------|
E|--------------------------------------|

C
Send me on my way (On my way)
Send me on my way (On my way)
Send me on my way (On my way)
Send me on my way (On my way)
Send me on my way (On my way)
Send me on my way (On my way)
Send me on my way (On my way)
Mm hmm (On my way)

(all of that starting from verse 1, X2 )


[Chorus]

(chords for the chorus)

      Am                G   F
Well, I would like to hold my little hand
Am                        G           F
How we will run, we will, how we will crawl, we will
Am               G   F
I would like to hold my little hand
Am                        G           F
How we will run, we will, how we will crawl


C
Send me on my way
Send me on my way
Send me on my way
On my way
Send me on my way
Send me on my way


[Outro]

  C
e|-------3--3--------------3--3---------|
B|-1-----------3-3----1----------3-3----|
G|----0------------------0--------------|
D|--------------------------------------|
A|-3------------------3-----------------|
E|--------------------------------------|

  F
e|-------3--3--------------3--3---------|
B|-1-----------3-3----1----------3-3----|
G|----2------------------2--------------|
D|-3------------------3-----------------|
A|--------------------------------------|
E|--------------------------------------|

(fingerpicking)

C 
I would like to reach out my hand
C                                   F
I may see you, I may tell you to run (On my way, on my way)
C
You know what they say about the young.
Suggest correction
Creating personal tab
Creating personal tab
You can edit any tab online and save it as your Personal.

You can edit, replace or remove any tab part or add personal notes – all changes will be seen only by you.

Personal tabs can be accessed anytime from any device, even offline.
Learn more »
Give kudos to tab author, rate the tab!
1 2 3 4 5
comments
print report bad tab
guest
You may want to rate the tab now too:
select rating
Wanna post a correction for this tab? Suggest correction