Oops, an error
Loading. Please wait.

Novels tab

14,197 views 162 this week
5 commentsread comments
1 2 3 4 5
x 51
add to favorites
×
Save as Personal and add changes to this tab that will be seen only by you. Learn more ›
×
You can save this tab as Personal to edit and correct it or add notes. All changes will be seen only by you. Learn more »
launch autoscroll
font size
0
reset
how to read this tab
guitar tuner
edit
Autoscroll
slow
fast
+/-
esc
set tempo
stop
-------------------------------------------------------------------------------
                             Novels - Rusty Clanton
-------------------------------------------------------------------------------
Tabbed by: Emily

Tuning: Standard. Capo 4.

If I show the whole chord, it is being strummed most likely for that measure. 

Watch these videos for reference: watch?v=kc5X66kFIMg and watch?v=vDCJ-3Z8Zfk


[Intro]
e|-------------|-----------------|------------|-----------------|x2 |-------------| x2
B|-------------|-----------------|------------|-----------------|   |-------------|
G|-------------|----------0----0-|------------|----------0----0-|   |-------------|
D|-------------|----------0----2-|------------|----------2----0-|   |-------------|
A|-------------|-----------------|------------|-----------------|   |-------------|
E|0h3--3--3--3-|-3--3--3-----3---|-3--3--3--3-|-3--3--3-----3---|   |-3--3--3--3--|

[Verse]

In a world of places,                                let's go somewhere we haven't gone
e|------------|------------|------------|----------------|------------|------------|----0----|0---|-0--|-0-|
B|------------|------------|------------|---------------=|------------|------------|----1----|1---|=1--|-0-|
G|------------|------------|------------|------0---0---0-|------------|------------|----0----|0---|-0--|-0-|
D|------------|------------|------------|------0---2---0-|------------|------------|----2----|0---|0h2-|-2-|
A|------------|------------|------------|----------------|------------|------------|-3--3----|3---|-3--|-3-|
E|-3--3--3--3-|-3--3--3--3-|-3--3--3--3-|-3--3---3---3---|-3--3--3--3-|-3--3--3--3-|---------|----|----|---|

we've got... younger faces.                                  
e|------------------|----------------|-------------|----------------|
B|--------0---------|----------------|-------------|----------------|
G|------------0-----|----------------|-------------|------0---0---0-|
D|----------------4-|------2---------|-------------|------0---2---0-|
A|------------------|----------------|-------------|----------------|
E|--3---3---3---3---|3---3---3---3---|3--3--3--3---|3--3----3---3---|

Than our hearts are           letting on
e|------------------|----------------|-0----|-0-----|-0------|-0-----|
B|--------0---------|--------------0-|-0----|-0-----|-0------|-0-----|
G|------------0-----|----------0-----|-0----|-0-----|-0------|-0-----|
D|----------------4-|--2---4---------|-2----|-0-----|-0h2----|-2-----|
A|------------------|----------------|-3----|-3-----|-3------|-3-----|
E|--3---3---3---3---|3---3---3---3---|------|-------|--------|-------|


And we won't place.....        any  stock in   old days..... let's save up for something new
e|-0------|--0-----|--0------|-0--------0----|--0------|--0---|--0--|---0---|--0---|--0--|--0--|--0---|
B|-1------|--1-----|--1------|-1--------1----|--1------|--1---|--1--|---1---|--0---|--0--|--0--|--0---|
G|-0------|--0-----|--0------|-0-----4--0----|--0------|--0---|--0--|---0---|--0---|--0--|--0--|--0---|
D|-2------|--2-----|--2------|-0h2------2----|--2------|--2---|--2--|---2---|--0---|--0--|--2--|--2---|
A|-0------|--0-----|--0------|-0--------0----|--3------|--3---|--3--|---3---|--2---|--2--|--2--|--2---|
E|--------|--------|---------|---------------|---------|------|-----|-------|--3---|--3--|--0--|--0---|

and Some day, I won't have to wait for ...
e|--0----|--0--|--0--|--0-------|
B|--1----|--1--|--1--|--3-------|
G|--0----|--0--|--0--|--0-------|
D|--2----|--2--|--2--|--4-------|
A|--3----|--3--|--3--|--5-------|
E|--3----|--3--|--3--|--5-------|

You (solo)
e|-----------------|----------------|-----------------|-----------------|-----------------|----------------|
B|-------0---------|----------------|-----------------|-----------------|-------0---------|---------------0|
G|-----------0-----|--0-------0-----|-------0---------|-----------------|-----------0-----|-----------0----|
D|---------------4-|------2-------0-|---2-------2---0-|-----------0-----|---------------4-|---2---4--------|
A|-----------------|----------------|-----------------|---0---2-------2-|-----------------|----------------|
E|-3---3---3---3---|3---3---3---3---|-3---3---3---3---|-3---3---3---3---|-3---3---3---3---|-3---3---3---3--|

e|--0----|--0---|--0--|--0-------|
B|--0----|--0---|--0--|--0-------|
G|--0----|--0---|--0--|--0-------|
D|--2----|--0h2-|--2--|--2-------|
A|--3----|--3---|--3--|--3-------|
E|--0----|--0---|--0--|--0-------|

what if I asked,                                 
e|------------------|----------------|-------------|----------------|
B|--------0---------|----------------|-------------|----------------|
G|------------0-----|----------------|-------------|------0---0---0-|
D|----------------4-|------2---------|-------------|------0---2---0-|
A|------------------|----------------|-------------|----------------|
E|--3---3---3---3---|3---3---3---3---|3--3--3--3---|3--3----3---3---|

what if I asked you to stay?
e|------------------|----------------|-0----|-0-----|-0------|-0-----|
B|--------0---------|--------------0-|-0----|-0-----|-0------|-0-----|
G|------------0-----|----------0-----|-0----|-0-----|-0------|-0-----|
D|----------------4-|--2---4---------|-2----|-0-----|-0h2----|-2-----|
A|------------------|----------------|-3----|-3-----|-3------|-3-----|
E|--3---3---3---3---|3---3---3---3---|------|-------|--------|-------|


what if it cost,                                 
e|------------------|----------------|-------------|----------------|
B|--------0---------|----------------|-------------|----------------|
G|------------0-----|----------------|-------------|------0---0---0-|
D|----------------4-|------2---------|-------------|------0---2---0-|
A|------------------|----------------|-------------|----------------|
E|--3---3---3---3---|3---3---3---3---|3--3--3--3---|3--3----3---3---|

you your heart and your last name?
e|------------------|----------------|-0----|-0-----|-0------|-0-----|
B|--------0---------|--------------0-|-0----|-0-----|-0------|-0-----|
G|------------0-----|----------0-----|-0----|-0-----|-0------|-0-----|
D|----------------4-|--2---4---------|-2----|-0-----|-0h2----|-2-----|
A|------------------|----------------|-3----|-3-----|-3------|-3-----|
E|--3---3---3---3---|3---3---3---3---|------|-------|--------|-------|

And we won't place.....        any  stock in   old days..... let's save up for something new
e|-0------|--0-----|--0------|-0--------0----|--0------|--0---|--0--|---0---|--0---|--0--|--0--|--0---|
B|-1------|--1-----|--1------|-1--------1----|--1------|--1---|--1--|---1---|--0---|--0--|--0--|--0---|
G|-0------|--0-----|--0------|-0-----4--0----|--0------|--0---|--0--|---0---|--0---|--0--|--0--|--0---|
D|-2------|--2-----|--2------|-0h2------2----|--2------|--2---|--2--|---2---|--0---|--0--|--2--|--2---|
A|-0------|--0-----|--0------|-0--------0----|--3------|--3---|--3--|---3---|--2---|--2--|--2--|--2---|
E|--------|--------|---------|---------------|---------|------|-----|-------|--3---|--3--|--0--|--0---|

and Some day, I won't have to wait for ...
e|--0----|--0--|--0--|--0-------|
B|--1----|--1--|--1--|--3-------|
G|--0----|--0--|--0--|--0-------|
D|--2----|--2--|--2--|--4-------|
A|--3----|--3--|--3--|--5-------|
E|--3----|--3--|--3--|--5-------|

you
e|-------------------|-----------------|-----------------|-----------------|
B|-------------------|-----------------|-----------------|-----------------|  
G|-------------------|---------------0-|-----------------|-----------------|   
D|----0---0---0---0--|---0---0---0---0-|---0---0---0---0-|---0---0---0---0-|   
A|-------------------|-----------------|-----------------|-----------------|   
E|--3---3---3---3----|-3---3---3---3---|-3---3---3---3---|-3---3---3---3---|   

oh, oh, oh..
e|-------------------|-0-------|-0------|-0----|--0-----| x2
B|-------------------|-1-------|-1------|-1----|--1-----|  
G|-------------------|-0-------|-0------|-0----|--0-----|   
D|----0---0---0---0--|-2-------|-2------|-2----|--0-----|
A|-------------------|-3-------|-3------|-3----|--3-----|  
E|--3---3---3---3---3|-3-------|-3------|-3----|--3-----| 

e|-------------------|-0-------|-0------|-0----|--0-----|-0----|-0--|--0--|--------------|
B|-------------------|-1-------|-1------|-1----|--1-----|-1----|-1--|--1--|--------------|
G|-------------------|-0-------|-0------|-0----|--0-----|-0----|-0--|--0--|--------------|
D|----0---0---0---0--|-2-------|-2------|-2----|--0-----|=4----|-4--|--4--|--------------|
A|-------------------|-3-------|-3------|-3----|--3-----|=5----|-5--|--5--|--------------|
E|--3---3---3---3----|-3-------|-3------|-3----|--3-----|-5----|-5--|--5--|--------------|


And when we sleep at night I hope that we write novels in our heads (C D G Em)
e|--0----|--0---|--0---|--0-----|
B|--1----|--1---|--0---|--0-----|
G|--0----|--0---|--0---|--0-----|
D|--2----|--4---|--0---|--2-----|
A|--3----|--5---|--2---|--2-----|
E|--3----|--5---|--3---|--------|
                              
of what to tell the other when we wake. (C D G Em)
e|--0----|--0---|--0---|--0-----|
B|--1----|--1---|--0---|--0-----|
G|--0----|--0---|--0---|--0-----|
D|--2----|--4---|--0---|--2-----|
A|--3----|--5---|--2---|--2-----|
E|--3----|--5---|--3---|--------|
                                                   
and when morning comes before we’re done with volumes left to choose (C D G Em) Let's say I...
e|--0----|--0---|--0---|--0-----|
B|--1----|--1---|--0---|--0-----|
G|--0----|--0---|--0---|--0-----|
D|--2----|--4---|--0---|--2-----|
A|--3----|--5---|--2---|--2-----|
E|--3----|--5---|--3---|--------|

Love...... you. (G C)         Just I love you (same G C), I love you (G C) 
e|--0----|--0---|   
B|--0----|--1---|
G|--0----|--0---|
D|--0----|--2---|
A|--2----|--3---|
E|--3----|--3---|

Oh I love you...
e|--0----|--0---|
B|--0----|--0---|
G|--0----|--2---|
D|--0----|--4---|
A|--2----|--5---|
E|--3----|--5---|

too.
e|-----------------|----------------|-----------------|-----------------|-----------------|----------------|
B|-------0---------|----------------|-----------------|-----------------|-------0---------|---------------0|
G|-----------0-----|--0-------0-----|-------0---------|-----------------|-----------0-----|-----------0----|
D|---------------4-|------2-------0-|---2-------2---0-|-----------0-----|---------------4-|---2---4--------|
A|-----------------|----------------|-----------------|---0---2-------2-|-----------------|----------------|
E|-3---3---3---3---|3---3---3---3---|-3---3---3---3---|-3---3---3---3---|-3---3---3---3---|-3---3---3---3--|

e|--0----|--0----0--0--|--0--0---0--0-|
B|--0----|--0----0--0--|--0--0h1-1--0-|
G|--0----|--0----0--0--|--0--0---0--0-|
D|--2----|--0h2--2--0--|--0--0---0--0-|
A|--3----|--3----3--3--|--2--2---2--2-|
E|--0----|--0----0--0--|--3--3---3--3-|


enjoy.

************************************

| h   hammer-on

************************************
Suggest correction
Creating personal tab
Creating personal tab
You can edit any tab online and save it as your Personal.

You can edit, replace or remove any tab part or add personal notes – all changes will be seen only by you.

Personal tabs can be accessed anytime from any device, even offline.
Learn more »
comments
print report bad tab
5 comments total. Showing first comments.
-1 reply
meganbendall1 40 Jun 25, 2016 10:47 AM

It's honestly not accurate. It's a bass line, so i presume it'd be for bass players but otherwise, I dont understand.

+2 reply
nicolakatehallberg 115 Jun 29, 2016 12:11 AM

This is great, thanks so much for posting it :)

0 reply
InternetHobo 20 Aug 04, 2017 04:43 PM

"Novice"

someone
please
help

(maybe i'm just bad at guitar)

anyways this is a great tab! thanks for making it :)

guest
You may want to rate the tab now too:
select rating
Wanna post a correction for this tab? Suggest correction