Oops, an error
Loading. Please wait.

Betcha Cant Play This tab

version 2
version 2

Whole song

Interactive

7,057 views 6 this week
4 commentsread comments
1 2 3 4 5
x 3
add to favorites
×
Save as Personal and add changes to this tab that will be seen only by you. Learn more ›
×
You can save this tab as Personal to edit and correct it or add notes. All changes will be seen only by you. Learn more »
launch autoscroll
font size
0
reset
how to read this tab
guitar tuner
edit
Autoscroll
slow
fast
+/-
esc
set tempo
stop
Author
Difficulty
----------------------------------------------------------------------------
                 Rusty Cooley - Betcha can`t play this
----------------------------------------------------------------------------
Tabbed by: Lp_Player92
Email: LP_Player92@hotmail.com

Tuning: Standard Tuning(low to high): B E A D G B E


Key to Tab:        Finger Positions:
\ - slide down     1 - index finger
S - 16th note      2 - middle finger
E - 8th note       3 - ring finger
Q - tempo(bpm)     4 - pinky


This is a 16th note run played with strict Alternate Picking and entirely within the 
mode(C# D E F# G# A B), which is the third mode of the A major scale(A B C# D E F# G#).


Very Fast Q=250

4/4

   S  S  S  S  S  S  S  S  S  S  S  S  S  S S  S  S  S  S  S  S  S  S  S
E|-------------------------------------------------------------------------|
B|-------------------------------------------------------------------------|
G|-------------------------------------------------------------------------|
D|--------------------------------------------------------12-14-16-18-16---|
A|------------11-12-14-16-14-12-11-14-12-11-9-11-12-14-16------------------|
E|-9-10-12-14--------------------------------------------------------------|
B|-------------------------------------------------------------------------|
   1  2  3  4  1  2  3  4  3  2  1  4  3  2 1/1  2  3  4  1  2  3  4  3

  |----4----| |----4----| |----4----| |----4----||----4----| |----4----|


    S  S  S  S  S  S  S  S  S  S  S  S  S  S  S  S  S  S  S  S  S  S  S  S
E|-------------------------------------------------------------------------|
B|-------------------------------------------------------------------------|
G|-------------------------------14-16-18-19-18-16-14-18-16-14-13-14-16-18-|
D|-14-12-16-14-12-11-12-14-16-18-------------------------------------------|
A|-------------------------------------------------------------------------|
E|-------------------------------------------------------------------------|
B|-------------------------------------------------------------------------|
   2  1  4  3  2  1/1   2  3  4  1  2  3  4  3  2  1  4  3  2   1/1  2  3

   |----4----| |----4----| |----4----| |----4----| |----4----| |----4----|


    S  S  S  S  S  S  S  S  S  S  S  S  S  S  S  S  S  S  S  S  S  S  S  S
E|-------------------------------------------------19-21-22-24-22-21-19-22-|
B|----17-19-21-22-21-19-17-21-19-17-15-17-19-21-22-------------------------|
G|-19----------------------------------------------------------------------|
D|-------------------------------------------------------------------------|
A|-------------------------------------------------------------------------|
E|-------------------------------------------------------------------------|
B|-------------------------------------------------------------------------|
   4  1  2  3  4  3  2  1  4  3  2   1/1  2  3  4  1  2  3  4  3  2  1  4

   |----4----| |----4----| |----4----| |----4----| |----4----| |----4----|


    S  S  S  S  S  S  E
E|-21-19-17-16-17-19-21\---------------------------------------------------|
B|-------------------------------------------------------------------------|
G|-------------------------------------------------------------------------|
D|-------------------------------------------------------------------------|
A|-------------------------------------------------------------------------|
E|-------------------------------------------------------------------------|
B|-------------------------------------------------------------------------|
   3  2   1/1  2  3  4

   |----4----| |---3---|

This is "Betcha can`t play this" by Rusty Cooley from the Guitar World Magazine March 2008.

            
            
Suggest correction
Creating personal tab
Creating personal tab
You can edit any tab online and save it as your Personal.

You can edit, replace or remove any tab part or add personal notes – all changes will be seen only by you.

Personal tabs can be accessed anytime from any device, even offline.
Learn more »
Give kudos to tab author, rate the tab!
1 2 3 4 5
comments
print report bad tab
4 comments total. Showing first comments.
+1 reply
LP_Player92 72 May 13, 2008 02:14 AM

This is a 16th note run played with strict Alternate Picking and entirely within the C#Phrigian mode
mode(C# D E F# G# A B), which is the third mode of the A major scale(A B C# D E F# G#).

+2 reply
Metal Maggo 10 May 15, 2008 05:57 AM

Who the f*ck is Betcha.

-1 reply
Helloween4Ever 162 Oct 15, 2009 04:27 PM

^ facepalm ensues.
http://www.youtube.com/watch?v=yqtbgDO2OHM
this should answer your question.

guest
You may want to rate the tab now too:
select rating
Wanna post a correction for this tab? Suggest correction