Oops, an error
Loading. Please wait.

Under The Influence tab

version 2
version 2

Whole song

Interactive

11,635 views 1 this week
2 commentsread comments
1 2 3 4 5
x 5
add to favorites
×
Save as Personal and add changes to this tab that will be seen only by you. Learn more ›
×
You can save this tab as Personal to edit and correct it or add notes. All changes will be seen only by you. Learn more »
launch autoscroll
font size
0
reset
how to read this tab
guitar tuner
edit
Autoscroll
slow
fast
+/-
esc
set tempo
stop
Author
Difficulty
                    Under Influence


                                            Rusty Cooley
Lead Guitar

       E  S S S S E  S S S S  E  S S
D#||---------------------------------|
A#||---------------------------------|
F#||--10----------9----------10------|
C#||---7----------7-----------7------|
G#||------0-0-0-0----0-0-0-0-----0-0-|
D#||---------------------------------|
A#||---------------------------------|


  S S E  S S S S  E  S S E  S S
--------------------------------|
--------------------------------|
------9----------10------9------|
------7-----------7------7------|
--0-0----0-0-0-0-----0-0----0-0-|
--------------------------------|
--------------------------------|


   E  S S S S  E  S S S S  E  S S
----------------------------------|
----------------------------------|
--12----------10----------12------|
---9-----------9-----------9------|
------0-0-0-0-----0-0-0-0-----0-0-|
----------------------------------|
----------------------------------|


  S S  E  S S S S  E  S S  E  S S
----------------------------------|
----------------------------------|
------10----------12------10------|
-------9-----------9-------9------|
--0-0-----0-0-0-0-----0-0-----0-0-|
----------------------------------|
----------------------------------|


  E  S S S S E  S S S S E  S S
-------------------------------|
-------------------------------|
--9----------7----------9------|
--6----------6----------6------|
-----0-0-0-0----0-0-0-0----0-0-|
-------------------------------|
-------------------------------|


  S S E  S S S S E  S S E  S S
-------------------------------|
-------------------------------|
------7----------9------7------|
------6----------6------6------|
--0-0----0-0-0-0----0-0----0-0-|
-------------------------------|
-------------------------------|


  |--6--| |--6--| |---6--| |--6--| |---6--| |--6--| |--6
  S  S  S S  S  S S  S   S S  S  S S  S   S S  S  S S  S
---------------------------------------------------------|
---------------------------------------------------------|
----------------------------------------------------5h-7-|
---------------------------6h-7h-9----------6h-7h-9------|
----------5h-7h-8-7h-8h-10---------7h-8h-10--------------|
--5h-7h-8------------------------------------------------|
---------------------------------------------------------|


   E  S S S S E  S S S S  E  S S
---------------------------------|
---------------------------------|
--10----------9----------10------|
---7----------7-----------7------|
------0-0-0-0----0-0-0-0-----0-0-|
---------------------------------|
---------------------------------|


  S S E  S S S S  E  S S E  S S
--------------------------------|
--------------------------------|
------9----------10------9------|
------7-----------7------7------|
--0-0----0-0-0-0-----0-0----0-0-|
--------------------------------|
--------------------------------|


   E  S S S S  E  S S S S  E  S S
----------------------------------|
----------------------------------|
--12----------10----------12------|
---9-----------9-----------9------|
------0-0-0-0-----0-0-0-0-----0-0-|
----------------------------------|
----------------------------------|


  S S  E  S S S S  E  S S  E  S S
----------------------------------|
----------------------------------|
------10----------12------10------|
-------9-----------9-------9------|
--0-0-----0-0-0-0-----0-0-----0-0-|
----------------------------------|
----------------------------------|


  E  S S S S E  S S S S E  S S
-------------------------------|
-------------------------------|
--9----------7----------9------|
--6----------6----------6------|
-----0-0-0-0----0-0-0-0----0-0-|
-------------------------------|
-------------------------------|


  S S E  S S S S E  S S E  S S
-------------------------------|
-------------------------------|
------7----------9------7------|
------6----------6------6------|
--0-0----0-0-0-0----0-0----0-0-|
-------------------------------|
-------------------------------|


   |--6-|  |--6-|  |--6-|  |--6--|   |--6--|  |--6--|
   S  S S  S S  S  S  S S  S  S  S   S  S  S  S  S  S
-------------8-12p-8----------------------------12-17p-1-|
----------10---------10----------------------13----------|
--------9---------------9-----------------14-------------|
-----10-------------------10-----------14----------------|
--12-------------------------12-12h-15-------------------|
---------------------------------------------------------|
---------------------------------------------------------|


                         SH
    Q     E  E   Q       Q
-------------------------------|
-------------------------------|
--/10~----L--9~--L----<>10~----|
-------------------------------|
-------------------------------|
-------------------------------|
-------------------------------|


       SH
  E    E   Q     Q     Q
-----------------------------|
-----------------------------|
--L--<>9~--L----10~----9~----|
-----------------------------|
-----------------------------|
-----------------------------|
-----------------------------|


    Q     E   E   Q     Q
------------------------------|
------------------------------|
--/12~----L--10~--L----12~----|
------------------------------|
------------------------------|
------------------------------|
------------------------------|


                           SH
  E   E   Q       Q        Q
---------------------------------|
---------------------------------|
--L--10~--L----<>12~----<>10~----|
---------------------------------|
---------------------------------|
---------------------------------|
---------------------------------|


   Q     E  E   Q    Q        E  E   Q    Q     Q
---------------------------|--------------------------|
---------------------------|--------------------------|
--/9~----L--7~--L----9~----|--L--7~--L----9~----7~----|
---------------------------|--------------------------|
---------------------------|--------------------------|
---------------------------|--------------------------|
---------------------------|--------------------------|


    Q     E  E   Q     Q
-----------------------------|
-----------------------------|
--/10~----L--9~--L----10~----|
-----------------------------|
-----------------------------|
-----------------------------|
-----------------------------|


  E  E   Q     S  S S  S  S S  S  S
------------------------------------|
------------------------------------|
--L--9~--L----10-12-9-10----9-------|
-------------------------12---10-12-|
------------------------------------|
------------------------------------|
------------------------------------|


    Q     E   E   Q     Q
------------------------------|
------------------------------|
--/12~----L--10~--L----12~----|
------------------------------|
------------------------------|
------------------------------|
------------------------------|


  E   E   Q     S  S  S  S  S  S  S  S
---------------------------------------|
---------------------------------------|
--L--10~--L----12-14-10-12----10-------|
---------------------------14----12-14-|
---------------------------------------|
---------------------------------------|
---------------------------------------|


   Q     E  E   Q    Q        E  E  Q    Q    Q
---------------------------|-----------------------|
---------------------------|-----------------------|
--/9~----L--7~--L----5~----|--L--------------------|
---------------------------|-----9--L----7----6----|
---------------------------|-----------------------|
---------------------------|-----------------------|
---------------------------|-----------------------|


    Q     E  E   Q     Q
-----------------------------|
-----------------------------|
--/10~----L--9~--L----10~----|
-----------------------------|
-----------------------------|
-----------------------------|
-----------------------------|


            PM     PM     PM
  E  E   E  E   E  E   E  E
-----------------------------|
---------------10-----12-----|
--L--9~--L--9------9------9--|
-----------------------------|
-----------------------------|
-----------------------------|
-----------------------------|


                SH           SH
    Q     E     E   Q        Q
-----------------------------------|
-----------------------------------|
--/12~----L--<>10~--L----/<>12~----|
-----------------------------------|
-----------------------------------|
-----------------------------------|
-----------------------------------|


        SH      PM      PM      PM
  E     E   E   E   E   E   E   E
-----------------------------------|
-------------------13------12------|
--L--<>10~--L--10------10------10--|
-----------------------------------|
-----------------------------------|
-----------------------------------|
-----------------------------------|


   Q     E  E   Q    Q        E  E  Q    Q    Q
---------------------------|-----------------------|
---------------------------|-----------------------|
--/9~----L--7~--L----5~----|--L--------------------|
---------------------------|-----9--L----7----6----|
---------------------------|-----------------------|
---------------------------|-----------------------|
---------------------------|-----------------------|


    Q     E  E   Q      Q
------------------------------|
------------------------------|
--/10~----L--9~--L----/10~----|
------------------------------|
------------------------------|
------------------------------|
------------------------------|


               |--6--|  |--6--|  |--6--|  |--6--|
  E  E   Q     S  S  S  S  S  S  S  S  S  S  S  S
--------------17-15-13----------------------------|
-----------------------17-15-13-17-15-13----------|
--L--9~--L-------------------------------16-14-12-|
--------------------------------------------------|
--------------------------------------------------|
--------------------------------------------------|
--------------------------------------------------|


    Q     E   E   Q      Q
-------------------------------|
-------------------------------|
--/12~----L--10~--L----/12~----|
-------------------------------|
-------------------------------|
-------------------------------|
-------------------------------|


                |--6--|  |--6--|  |--6--|  |--6--|
  E   E   Q     S  S  S  S  S  S  S  S  S  S  S  S
---------------18-17-15----------------------------|
------------------------18-17-15-18-17-15----------|
--L--10~--L-------------------------------17-16-14-|
---------------------------------------------------|
---------------------------------------------------|
---------------------------------------------------|
---------------------------------------------------|


   Q     E  E   Q     Q
----------------------------|
----------------------------|
--/9~----L--7~--L----/9~----|
----------------------------|
----------------------------|
----------------------------|
----------------------------|


               |--6--|  |--6--|  |--6--|  |--6--|
  E  E   Q     S  S  S  S  S  S  S  S  S  S  S  S
--------------20-19-17----------------------------|
-----------------------20-19-17-20-19-17----------|
--L--7~--L-------------------------------18-17-15-|
--------------------------------------------------|
--------------------------------------------------|
--------------------------------------------------|
--------------------------------------------------|


   |--6--|  |--6--|  |--6--|  |--6--|  |--6--|  |--6--|
   S  S  S  S  S  S  S  S  S  S  S  S  S  S  S  S  S  S
--------------------------------------------------------|
-----------------------------------------------13-15-17-|
-----------11-12-14----------12-14-16-12-14-16----------|
--11-12-14----------12-14-16----------------------------|
--------------------------------------------------------|
--------------------------------------------------------|
--------------------------------------------------------|


   S  S  S  S  S  S  S  S  S  S  S  S  S  S  S  S
--------------------------------------------------|
--10-13-12-13-10-13-12-13-10-13-12-13-10-13-12-13-|
--------------------------------------------------|
--------------------------------------------------|
--------------------------------------------------|
--------------------------------------------------|
--------------------------------------------------|


  S  S  S  S S  S  S  S S  S  S  S S  S  S  S
----------------------------------------------|
--9-12-10-12-9-12-10-12-9-12-10-12-9-12-10-12-|
----------------------------------------------|
----------------------------------------------|
----------------------------------------------|
----------------------------------------------|
----------------------------------------------|


   S  S  S  S  S  S  S  S  S  S  S  S  S  S  S  S
--------------------------------------------------|
--12-15-13-15-12-15-13-15-12-15-13-15-12-15-13-15-|
--------------------------------------------------|
--------------------------------------------------|
--------------------------------------------------|
--------------------------------------------------|
--------------------------------------------------|


   S  S  S  S  S  S  S  S  S  S  S  S  S  S  S  S
--------------------------------------------------|
--10-13-12-13-10-13-12-13-10-13-12-13-10-13-12-13-|
--------------------------------------------------|
--------------------------------------------------|
--------------------------------------------------|
--------------------------------------------------|
--------------------------------------------------|


  S  S S  S S  S S  S S  S S  S S  S S  S
------------------------------------------|
--6-10-9-10-6-10-9-10-7-10-9-10-7-10-9-10-|
------------------------------------------|
------------------------------------------|
------------------------------------------|
------------------------------------------|
------------------------------------------|


  S  S  S  S S  S  S  S S  S  S  S S  S  S  S
----------------------------------------------|
--8-12-10-12-8-12-10-12-9-12-10-12-9-12-10-12-|
----------------------------------------------|
----------------------------------------------|
----------------------------------------------|
----------------------------------------------|
----------------------------------------------|


   S  S  S  S  S  S  S  S  S  S  S  S  S  S  S  S
--------------------------------------------------|
--10-13-12-13-10-13-12-13-10-13-12-13-10-13-12-13-|
--------------------------------------------------|
--------------------------------------------------|
--------------------------------------------------|
--------------------------------------------------|
--------------------------------------------------|


  S  S  S  S S  S  S  S S  S  S  S S  S  S  S
----------------------------------------------|
--9-12-10-12-9-12-10-12-9-12-10-12-9-12-10-12-|
----------------------------------------------|
----------------------------------------------|
----------------------------------------------|
----------------------------------------------|
----------------------------------------------|


   S  S  S  S  S  S  S  S  S  S  S  S  S  S  S  S
--------------------------------------------------|
--12-15-13-15-12-15-13-15-12-15-13-15-12-15-13-15-|
--------------------------------------------------|
--------------------------------------------------|
--------------------------------------------------|
--------------------------------------------------|
--------------------------------------------------|


   S  S  S  S  S  S  S  S  S  S  S  S  S  S  S  S
--------------------------------------------------|
--10-13-12-13-10-13-12-13-10-13-12-13-10-13-12-13-|
--------------------------------------------------|
--------------------------------------------------|
--------------------------------------------------|
--------------------------------------------------|
--------------------------------------------------|


  S  S S  S S  S S  S S  S S  S S  S S  S
------------------------------------------|
--6-10-9-10-6-10-9-10-7-10-9-10-7-10-9-10-|
------------------------------------------|
------------------------------------------|
------------------------------------------|
------------------------------------------|
------------------------------------------|


  S  S  S  S S  S  S  S S  S  S  S S  S  S  S
----------------------------------------------|
--8-12-10-12-8-12-10-12-9-12-10-12-9-12-10-12-|
----------------------------------------------|
----------------------------------------------|
----------------------------------------------|
----------------------------------------------|
----------------------------------------------|


   S  S  S  S  S  S  S  S  S  S  S  S S  S  S S
--------------------------10-13-12-10-8-12-10-8-|
--10-13-12-13-10-13-12-13-----------------------|
------------------------------------------------|
------------------------------------------------|
------------------------------------------------|
------------------------------------------------|
------------------------------------------------|


   S  S  S  S  S  S  S  S  S  S  S  S  S  S  S  S
--10-13-12-13-10-13-12-13-13-17-15-13-12-15-13-12-|
--------------------------------------------------|
--------------------------------------------------|
--------------------------------------------------|
--------------------------------------------------|
--------------------------------------------------|
--------------------------------------------------|


   S  S  S  S  S  S  S  S  S  S  S  S  S  S  S  S
--------------------------12-15-13-12-10-13-12-10-|
--13-17-15-17-13-17-15-17-------------------------|
--------------------------------------------------|
--------------------------------------------------|
--------------------------------------------------|
--------------------------------------------------|
--------------------------------------------------|


   S  S  S  S  S  S  S  S  S  S  S  S S  S  S S
--------------------------10-13-12-10-8-12-10-8-|
--12-15-13-15-12-15-13-15-----------------------|
------------------------------------------------|
------------------------------------------------|
------------------------------------------------|
------------------------------------------------|
------------------------------------------------|


  S  S  S  S  S  S  S  S
-------------------------|
--9-12-10-12-12-15-13-15-|
-------------------------|
-------------------------|
-------------------------|
-------------------------|
-------------------------|


   S  S  S  S  S  S  S  S  S  S  S  S S  S  S S
--------------------------10-13-12-10-8-12-10-8-|
--10-13-12-13-10-13-12-13-----------------------|
------------------------------------------------|
------------------------------------------------|
------------------------------------------------|
------------------------------------------------|
------------------------------------------------|


   S  S  S  S  S  S  S  S  S  S  S  S  S  S  S  S
--10-13-12-13-10-13-12-13-13-17-15-13-12-15-13-12-|
--------------------------------------------------|
--------------------------------------------------|
--------------------------------------------------|
--------------------------------------------------|
--------------------------------------------------|
--------------------------------------------------|


   S  S  S  S  S  S  S  S  S  S  S  S  S  S  S  S
--------------------------12-15-13-12-10-13-12-10-|
--13-17-15-17-13-17-15-17-------------------------|
--------------------------------------------------|
--------------------------------------------------|
--------------------------------------------------|
--------------------------------------------------|
--------------------------------------------------|


   S  S  S  S  S  S  S  S  S  S  S  S S  S  S S
--------------------------10-13-12-10-8-12-10-8-|
--12-15-13-15-12-15-13-15-----------------------|
------------------------------------------------|
------------------------------------------------|
------------------------------------------------|
------------------------------------------------|
------------------------------------------------|


  S  S  S  S  S  S  S  S
-------------------------|
--9-12-10-12-12-15-13-15-|
-------------------------|
-------------------------|
-------------------------|
-------------------------|
-------------------------|


  S  S  S  S  S  S  S  S  S  S  S  S  S  S  S  S
-------------------------------------------------|
-------------10-13-12-13-------------12-15-13-15-|
--9-12-10-12-------------11-14-13-14-------------|
-------------------------------------------------|
-------------------------------------------------|
-------------------------------------------------|
-------------------------------------------------|


  S  S  S  S S  S  S  S  S  S  S  S  S  S  S  S
-------------8-12-10-12-13-17-16-17-16-19-17-19-|
--9-12-10-12------------------------------------|
------------------------------------------------|
------------------------------------------------|
------------------------------------------------|
------------------------------------------------|
------------------------------------------------|


  S  S  S  S  S  S  S  S  S  S  S  S  S  S  S  S
-------------------------------------------------|
-------------10-13-12-13-------------12-15-13-15-|
--9-12-10-12-------------11-14-13-14-------------|
-------------------------------------------------|
-------------------------------------------------|
-------------------------------------------------|
-------------------------------------------------|


  S  S  S  S S  S  S  S  S  S  S  S  S  S  S  S
-------------8-12-10-12-13-17-16-17-16-19-17-19-|
--9-12-10-12------------------------------------|
------------------------------------------------|
------------------------------------------------|
------------------------------------------------|
------------------------------------------------|
------------------------------------------------|


   S  S  S  S  S  S  S  S  S  S  S  S  S  S  S  S
--17-20-19-20-19-22-20-22-20-24-22-24-19-22-20-22-|
--------------------------------------------------|
--------------------------------------------------|
--------------------------------------------------|
--------------------------------------------------|
--------------------------------------------------|
--------------------------------------------------|


   S  S  S  S  S  S  S  S
--17-20-19-20-16-19-17-19-|
--------------------------|
--------------------------|
--------------------------|
--------------------------|
--------------------------|
--------------------------|


   |--6--|  |--6--|  |--6--|  |--6--|  |--6--|  |--6--|
   S  S  S  S  S  S  S  S  S  S  S  S  S  S  S  S  S  S
--17-16-13----------------------------------------------|
-----------17-15-13-------------------------------------|
--------------------16-14-13-14-13-10-------------------|
--------------------------------------14-12-10----------|
-----------------------------------------------14-12-11-|
--------------------------------------------------------|
--------------------------------------------------------|


   S  S  S S  S S  S  S  S   S  S  S  S  S  S   S
--12p-8---------8-12p-8-15p-12----------12-15p-12-|
--------10---10----------------13----13-----------|
-----------9----------------------12--------------|
--------------------------------------------------|
--------------------------------------------------|
--------------------------------------------------|
--------------------------------------------------|


   S  S S S S S  S  S  S  S  S S  S S  S  S
--10p-7-------7-10p-7-12p-8---------8-12p-8-|
--------8---8---------------10---10---------|
----------7--------------------9------------|
--------------------------------------------|
--------------------------------------------|
--------------------------------------------|
--------------------------------------------|


  S  S S S S S S  S S  S S S S S S  S
--8p-5-------5-8p-5-8p-5-------5-8p-5-|
-------6---6-------------7---7--------|
---------5-----------------5----------|
--------------------------------------|
--------------------------------------|
--------------------------------------|
--------------------------------------|


   S  S S S S S  S  S  S  S S S S S  S  S
--10p-7-------7-10p-7-10p-7-------7-10p-7-|
--------8---8---------------9---9---------|
----------7-------------------7-----------|
------------------------------------------|
------------------------------------------|
------------------------------------------|
------------------------------------------|


   S  S  S S  S S  S  S  S   S  S  S  S  S  S   S
--12p-8---------8-12p-8-15p-12----------12-15p-12-|
--------10---10----------------13----13-----------|
-----------9----------------------12--------------|
--------------------------------------------------|
--------------------------------------------------|
--------------------------------------------------|
--------------------------------------------------|


   S  S S S S S  S  S  S  S  S S  S S  S  S
--10p-7-------7-10p-7-12p-8---------8-12p-8-|
--------8---8---------------10---10---------|
----------7--------------------9------------|
--------------------------------------------|
--------------------------------------------|
--------------------------------------------|
--------------------------------------------|


  S  S S S S S S  S S  S S S S S S  S
--8p-5-------5-8p-5-8p-5-------5-8p-5-|
-------6---6-------------7---7--------|
---------5-----------------5----------|
--------------------------------------|
--------------------------------------|
--------------------------------------|
--------------------------------------|


   S  S S S S S  S  S  S S S S S S  S  S
--10p-7-------7-10p-7-10-7-------7-10p-7-|
--------8---8--------------9---9---------|
----------7------------------7-----------|
-----------------------------------------|
-----------------------------------------|
-----------------------------------------|
-----------------------------------------|


   S  S  S S  S S  S S  S   S  S  S  S  S  S   S
--12p-8---------8-12-8-17p-13----------13-17p-13-|
--------10---10---------------15----15-----------|
-----------9---------------------14--------------|
-------------------------------------------------|
-------------------------------------------------|
-------------------------------------------------|
-------------------------------------------------|


   S   S  S  S  S  S  S   S  S   S  S  S  S  S  S   S
--15p-12----------12-15p-12-18p-15----------15-18p-15-|
---------13----13------------------16----16-----------|
------------12------------------------15--------------|
------------------------------------------------------|
------------------------------------------------------|
------------------------------------------------------|
------------------------------------------------------|


   S   S  S  S  S  S  S   S
--19p-16----------16-19p-16-|
---------17----17-----------|
------------16--------------|
----------------------------|
----------------------------|
----------------------------|
----------------------------|


   S  S  S S  S S  S  S  S   S  S  S  S  S  S   S
--12p-8---------8-12p-8-17p-13----------13-17p-13-|
--------10---10----------------15----15-----------|
-----------9----------------------14--------------|
--------------------------------------------------|
--------------------------------------------------|
--------------------------------------------------|
--------------------------------------------------|


   S   S  S  S  S  S  S   S  S   S  S  S  S  S  S   S
--15p-12----------12-15p-12-18p-15----------15-18p-15-|
---------13----13------------------16----16-----------|
------------12------------------------15--------------|
------------------------------------------------------|
------------------------------------------------------|
------------------------------------------------------|
------------------------------------------------------|


   S   S  S  S  S  S  S   S
--19p-16----------16-19p-16-|
---------17----17-----------|
------------16--------------|
----------------------------|
----------------------------|
----------------------------|
----------------------------|


   S   S  S  S  S  S  S   S  S   S  S  S  S  S  S   S
--20p-17----------17-20p-17-19p-15----------15-19p-15-|
------------------------------------------------------|
---------21-17-21------------------19-16-19-----------|
------------------------------------------------------|
------------------------------------------------------|
------------------------------------------------------|
------------------------------------------------------|


   S   S  S  S  S  S  S   S  S   S  S  S  S  S  S   S
--17p-13----------13-17p-13-19p-15----------15-19p-15-|
------------------------------------------------------|
---------17-14-17------------------19-16-19-----------|
------------------------------------------------------|
------------------------------------------------------|
------------------------------------------------------|
------------------------------------------------------|


   S   S  S  S  S  S  S   S  S   S  S  S  S  S  S   S
--20p-17----------17-20p-17-19p-15----------15-19p-15-|
------------------------------------------------------|
---------21-17-21------------------19-16-19-----------|
------------------------------------------------------|
------------------------------------------------------|
------------------------------------------------------|
------------------------------------------------------|


   S   S  S  S  S  S  S   S  S   S  S  S  S  S  S   S
--17p-13----------13-17p-13-19p-15----------15-19p-15-|
------------------------------------------------------|
---------17-14-17------------------19-16-19-----------|
------------------------------------------------------|
------------------------------------------------------|
------------------------------------------------------|
------------------------------------------------------|


   S  S  S S  S S  S  S  S   S  S  S  S  S  S   S
--12p-8---------8-12p-8-15p-12----------12-15p-12-|
--------10---10----------------13----13-----------|
-----------9----------------------12--------------|
--------------------------------------------------|
--------------------------------------------------|
--------------------------------------------------|
--------------------------------------------------|


   S  S S S S S  S  S  S  S  S S  S S  S  S
--10p-7-------7-10p-7-12p-8---------8-12p-8-|
--------8---8---------------10---10---------|
----------7--------------------9------------|
--------------------------------------------|
--------------------------------------------|
--------------------------------------------|
--------------------------------------------|


  S  S S S S S S  S S  S S S S S S  S
--8p-5-------5-8p-5-8p-5-------5-8p-5-|
-------6---6-------------7---7--------|
---------5-----------------5----------|
--------------------------------------|
--------------------------------------|
--------------------------------------|
--------------------------------------|


   S  S S S S S  S  S  S  S S S S S  S  S
--10p-7-------7-10p-7-10p-7-------7-10p-7-|
--------8---8---------------9---9---------|
----------7-------------------7-----------|
------------------------------------------|
------------------------------------------|
------------------------------------------|
------------------------------------------|


   S  S  S S  S S  S  S  S   S  S  S  S  S  S   S
--12p-8---------8-12p-8-15p-12----------12-15p-12-|
--------10---10----------------13----13-----------|
-----------9----------------------12--------------|
--------------------------------------------------|
--------------------------------------------------|
--------------------------------------------------|
--------------------------------------------------|


   S  S S S S S  S  S  S  S  S S  S S  S  S
--10p-7-------7-10p-7-12p-8---------8-12p-8-|
--------8---8---------------10---10---------|
----------7--------------------9------------|
--------------------------------------------|
--------------------------------------------|
--------------------------------------------|
--------------------------------------------|


  S  S S S S S S  S S  S S S S S S  S
--8p-5-------5-8p-5-8p-5-------5-8p-5-|
-------6---6-------------7---7--------|
---------5-----------------5----------|
--------------------------------------|
--------------------------------------|
--------------------------------------|
--------------------------------------|


   S  S S S S S  S  S  S  S S S S S  S  S
--10p-7-------7-10p-7-10p-7-------7-10p-7-|
--------8---8---------------9---9---------|
----------7-------------------7-----------|
------------------------------------------|
------------------------------------------|
------------------------------------------|
------------------------------------------|


  S  S S S S S S  S S  S S S S S S  S
--7p-3-------3-7p-3-7p-3-------3-7p-3-|
-------5---5-------------5---5--------|
---------4-----------------4----------|
--------------------------------------|
--------------------------------------|
--------------------------------------|
--------------------------------------|


  S  S S S S S S  S S  S S S S S S  S
--8p-5-------5-8p-5-8p-5-------5-8p-5-|
-------6---6-------------6---6--------|
---------5-----------------5----------|
--------------------------------------|
--------------------------------------|
--------------------------------------|
--------------------------------------|


  S  S S S S S S  S S  S S S S S S  S
--7p-3-------3-7p-3-7p-3-------3-7p-3-|
-------5---5-------------5---5--------|
---------4-----------------4----------|
--------------------------------------|
--------------------------------------|
--------------------------------------|
--------------------------------------|


  S  S S S S S S  S S  S S S S S S  S
--8p-5-------5-8p-5-8p-5-------5-8p-5-|
-------6---6-------------6---6--------|
---------5-----------------5----------|
--------------------------------------|
--------------------------------------|
--------------------------------------|
--------------------------------------|


  S  S S S S S S  S S S S S S  S S S
--5p-1-------1-5p-2-------2-5p-2-----|
-------3---3--------3---3--------3---|
---------2------------2------------2-|
-------------------------------------|
-------------------------------------|
-------------------------------------|
-------------------------------------|


  S S S  S S S S S
----2-7p-4-------4-|
--3--------5---5---|
-------------4-----|
-------------------|
-------------------|
-------------------|
-------------------|


  S  S S S S   S S S  S  S  S  S  S   S  S  S
--8p-5-------------7-11p-8-----------------10-|
-------7---------9---------10-----------12----|
---------8-7h-10--------------11-10h-13-------|
----------------------------------------------|
----------------------------------------------|
----------------------------------------------|
----------------------------------------------|


   S   S  S  S  S   S  S  S  S   S  S  S  S   S  S  S  S
--14p-11-----------------13-17p-14-----------------16-20-|
---------13-----------15-----------16-----------18-------|
------------14-13h-16-----------------17-16h-19----------|
---------------------------------------------------------|
---------------------------------------------------------|
---------------------------------------------------------|
---------------------------------------------------------|


    S   S  S  S  S  S  S   S  S   S  S  S  S  S  S   S
---21p-18----------18-21p-18-20p-17----------17-20p-17-|
----------20----20------------------19----19-----------|
-------------21------------------------20--------------|
-------------------------------------------------------|
-------------------------------------------------------|
-------------------------------------------------------|
-------------------------------------------------------|


   S   S  S  S  S  S  S   S  S   S  S  S  S  S  S   S
--17p-14----------14-17p-14-16p-13----------13-16p-13-|
---------16----16------------------15----15-----------|
------------17------------------------16--------------|
------------------------------------------------------|
------------------------------------------------------|
------------------------------------------------------|
------------------------------------------------------|


   S   S  S  S  S  S  S   S  S   S  S  S  S  S  S   S
--21p-18----------18-21p-18-20p-17----------17-20p-17-|
---------20----20------------------19----19-----------|
------------21------------------------20--------------|
------------------------------------------------------|
------------------------------------------------------|
------------------------------------------------------|
------------------------------------------------------|


   S   S  S  S  S  S  S   S  S   S  S  S  S  S  S   S
--17p-14----------14-17p-14-16p-13----------13-16p-13-|
---------16----16------------------15----15-----------|
------------17------------------------16--------------|
------------------------------------------------------|
------------------------------------------------------|
------------------------------------------------------|
------------------------------------------------------|


   S   S  S  S  S  S  S   S  S   S  S  S  S  S  S   S
--14p-11----------11-14p-11-13p-10----------10-13p-10-|
---------13----13------------------11----11-----------|
------------14------------------------10--------------|
------------------------------------------------------|
------------------------------------------------------|
------------------------------------------------------|
------------------------------------------------------|


   S  S  S  S  S S  S  S  S  S S S S S  S  S
--11p-8----------8-11p-8-10p-7-------7-10p-7-|
--------10----10---------------8---8---------|
-----------11--------------------7-----------|
---------------------------------------------|
---------------------------------------------|
---------------------------------------------|
---------------------------------------------|


  S  S S S S S S  S S  S S S S S S  S
--8p-5-------5-8p-5-7p-4-------4-7p-4-|
-------7---7-------------5---5--------|
---------8-----------------4----------|
--------------------------------------|
--------------------------------------|
--------------------------------------|
--------------------------------------|


  S  S S S S S S  S S  S S S S S S  S
--8p-5-------5-8p-5-7p-4-------4-7p-4-|
-------7---7-------------5---5--------|
---------8-----------------4----------|
--------------------------------------|
--------------------------------------|
--------------------------------------|
--------------------------------------|


   S  S  S  S  S S  S  S  S  S S S S S  S  S
--11p-8----------8-11p-8-10p-7-------7-10p-7-|
--------10----10---------------8---8---------|
-----------11--------------------7-----------|
---------------------------------------------|
---------------------------------------------|
---------------------------------------------|
---------------------------------------------|


   S  S  S  S  S S  S  S  S  S S S S S  S  S
--11p-8----------8-11p-8-10p-7-------7-10p-7-|
--------10----10---------------8---8---------|
-----------11--------------------7-----------|
---------------------------------------------|
---------------------------------------------|
---------------------------------------------|
---------------------------------------------|


   S   S  S  S  S  S  S   S  S   S  S  S  S  S  S   S
--14p-11----------11-14p-11-13p-10----------10-13p-10-|
---------13----13------------------11----11-----------|
------------14------------------------10--------------|
------------------------------------------------------|
------------------------------------------------------|
------------------------------------------------------|
------------------------------------------------------|


   S   S  S  S  S  S  S   S  S   S  S  S  S  S  S   S
--14p-11----------11-14p-11-13p-10----------10-13p-10-|
---------13----13------------------11----11-----------|
------------14------------------------10--------------|
------------------------------------------------------|
------------------------------------------------------|
------------------------------------------------------|
------------------------------------------------------|


   S   S  S  S  S  S  S   S  S   S  S  S  S  S  S   S
--17p-14----------14-17p-14-16p-13----------13-16p-13-|
---------16----16------------------15----15-----------|
------------17------------------------16--------------|
------------------------------------------------------|
------------------------------------------------------|
------------------------------------------------------|
------------------------------------------------------|


   S   S  S  S  S  S  S   S  S   S  S  S  S  S  S   S
--17p-14----------14-17p-14-16p-13----------13-16p-13-|
---------16----16------------------15----15-----------|
------------17------------------------16--------------|
------------------------------------------------------|
------------------------------------------------------|
------------------------------------------------------|
------------------------------------------------------|


   S   S  S  S  S  S  S   S  S   S  S  S  S  S  S   S
--21p-18----------18-21p-18-20p-17----------17-20p-17-|
---------20----20------------------19----19-----------|
------------21------------------------20--------------|
------------------------------------------------------|
------------------------------------------------------|
------------------------------------------------------|
------------------------------------------------------|


   S   S  S  S  S  S  S   S  S   S  S  S  S  S  S   T
--21p-18----------18-21p-18-20p-17----------17-20p-17----|
---------20----20------------------19----19-----------/1-|
------------21------------------------20-----------------|
---------------------------------------------------------|
---------------------------------------------------------|
---------------------------------------------------------|
---------------------------------------------------------|


    S  S  S  S  S  S  S  S  S  S  S  S  S  S  S  S
------16-17-19-19-17-16----------------------------|
---/L-------------------18-17-15-------------------|
---------------------------------17-16-17-16-14----|
------------------------------------------------17-|
---------------------------------------------------|
---------------------------------------------------|
---------------------------------------------------|


   S  S  S  S  S  S  S  S  S  S  S  S  S  S  S  S
--------------------------------------------------|
--------------------------------------------------|
--------------------------------------------------|
--15-14-15-14-12----------------12-14-15-14-15-17-|
-----------------15-14-12-14-15-------------------|
--------------------------------------------------|
--------------------------------------------------|


   S  S  S  S  S  S  S  S  S  S  S  S  S  S  S  S
-----------------------------------17-19-20-20-19-|
-----------------15-17-18-20-18-20----------------|
--14-16-17-16-17----------------------------------|
--------------------------------------------------|
--------------------------------------------------|
--------------------------------------------------|
--------------------------------------------------|


   S  S  S  S  S  S  S  S  S  S  S  S  S  S  S  S
--17----------------------------------------------|
-----20-18-17-------------------------------------|
--------------19-17-16-17-16-14-------------------|
--------------------------------17-15-14-16-15-14-|
--------------------------------------------------|
--------------------------------------------------|
--------------------------------------------------|


   S  S  S  S  S  S  S  S  S  S  S  S  S  S  S  S
--------------------------------------------------|
-----------------------------------------15-------|
--------------------------------14-16-17----17-15-|
-----------------14-15-17-15-17-------------------|
--17-15-14-15-17----------------------------------|
--------------------------------------------------|
--------------------------------------------------|


                     |--3--|
   S  S  S  S  S  S  S  S  S  S  S  S  S  S  S  S  S
-----------17-19-20-22-24-22-24-22-20----------------|
--17-18-20----------------------------24-22-20-22-24-|
-----------------------------------------------------|
-----------------------------------------------------|
-----------------------------------------------------|
-----------------------------------------------------|
-----------------------------------------------------|


   |--3--|                          |--3--|
   S  S  S  S  S  S  S  S  S  S  S  S  S  S  S  S  S  S
--20-22-20-22-20-19----------------19-20-19-20-19-17----|
--------------------22-20-18-20-22-------------------20-|
--------------------------------------------------------|
--------------------------------------------------------|
--------------------------------------------------------|
--------------------------------------------------------|
--------------------------------------------------------|


                                                \
               |--3--|
   S  S  S  S  S  S  S  S  S  S  S  S  S  S  S  S  S
--------------15-17-15-17-15-13----------------15-13-|
--18-17-18-20-------------------17-15-13-15-17-------|
-----------------------------------------------------|
-----------------------------------------------------|
-----------------------------------------------------|
-----------------------------------------------------|
-----------------------------------------------------|


   S  S  S  S  S  S  S  S  S S  S  S S  S S S
--12------------------------------------------|
-----15-13-12---------------------------------|
--------------14-12-10-12-10-9----------------|
-------------------------------12-10-9-10-9-7-|
----------------------------------------------|
----------------------------------------------|
----------------------------------------------|


                           \2
   S S S S S S S S S S S S E  E
----------------------------------|
----------------------------------|
----------------------------------|
------------------------------x\--|
--10-8-7-8-7-5----------------x\--|
---------------8-7-5-7-5-3-5--L---|
----------------------------------|


  Q    E   E    Q    E   S  S
-------x--12b~--L----L--12-10-|
-------x--------L-------------|
------------------------------|
------------------------------|
------------------------------|
------------------------------|
------------------------------|


                                                      \2
   11 11 11 11 11 11 11 11 11 1111             |---3--|
   S  S  S  S  S  S  S  S  S  S S  S  S  E     E   E  E
--------------------------------------------------------|
--12-10-14-12-10-11-12-11-10------10----------10--10--8-|
-----------------------------12-9----10-12b~------------|
--------------------------------------------------------|
--------------------------------------------------------|
--------------------------------------------------------|
--------------------------------------------------------|


                         |-----7-----|  |-----7-----|  7
  E   S   S  E    S   S  S  S  S  S  S  S  S  S  S  S  S
-----10s-14-------------------12-14-15-14-12-------------|
--L------------------12-13-15----------------15-14-12-10-|
---------------------------------------------------------|
---------------------------------------------------------|
---------------------------------------------------------|
------------15\--15/-------------------------------------|
---------------------------------------------------------|


                                                    Este
   7  7 7  7  7 7  7  7 7  7 7 7  7 7 7 7 7 7 7 7 7 7
   S  S S  S  S S  S  S S  S S S  S S S S S S S S S S
--------------------------------------------------------|
--------------------------------------------------------|
--12-11-9-----------------------------------------------|
----------12-10-9---------------------------------------|
------------------12-10-9-10-9-7------------------------|
---------------------------------10-8-7-8-7-5-------8---|
----------------------------------------------8-7-5-----|


  Y esta parte no va igual.
  |--------------6-------------| |--6-| |--6-| |-6-|  |-
  S                         S  S S S  S S S  S S S S  S
--------------------------------------------------------|
--------------------------------------------------------|
--------------------------------------------------------|
---------------------------------7-9-12-9-7-------------|
--7-------------------------9-12------------12-9-7-9-12-|
--------------------------------------------------------|
--------------------------------------------------------|


  |--6-|  |--6--| |--6--|  |--6--|  |--6--| |--6--|  |--
  S  S S  S  S  S S  S  S  S  S  S  S  S  S S  S  S  S
----------------------------------------------------10-1-|
-----------------------10-12-15-12-10--------------------|
-------9-11-14-11-9-14----------------14-11-9-11-14------|
--9-12---------------------------------------------------|
---------------------------------------------------------|
---------------------------------------------------------|
---------------------------------------------------------|


                          |--3--|              |--3--|
   S  E.    E   E     S S S  S  S  T  T  T  T  S  S  S
--22-19-----L--22brb--L---L-24-22-20-------------------|
-----22b~----------------------------24-22-23-24-23-22-|
-------------------------------------------------------|
-------------------------------------------------------|
-------------------------------------------------------|
-------------------------------------------------------|
-------------------------------------------------------|


   |-----5-----|
   S  S  S  S  S  S  S  E     Q     Q
-----17----------------------------22\----|
--20----20-18-20-18-17-18brb--L-----------|
------------------------------------------|
------------------------------------------|
------------------------------------------|
------------------------------------------|
------------------------------------------|


  Esta parte esta mal. Hice un shred sobre F menor.
  |-------------------------6-------------------------|
  S                                                 S S
--------------------------------------------------------|
--------------------------------------------------------|
--------------------------------------------------------|
--------------------------------------------------------|
--------------------------------------------------------|
--2-------------------------------------------------4-5-|
--------------------------------------------------------|


  |--6-| |--6-| |--6-| |--6-| |--6-|  |--6-|  |--6-|  |-
  S S  S S S  S S  S S S  S S S  S S  S S  S  S  S S  S
--------------------------------------------------------|
----------------------------------------9-10-12-10-9----|
---------------------7-9-11-9-7----9-11--------------11-|
--7-9-11-9-7----9-11------------11----------------------|
-------------11-----------------------------------------|
--------------------------------------------------------|
--------------------------------------------------------|


  |--6--|  |--6-|  |--6--|  |--6--|  |--6--|  |--6--|  |
  S  S  S  S S  S  S  S  S  S  S  S  S  S  S  S  S  S  S
--9-10-12-10-9-------------12-14-16-14-12----------------|
---------------12-10-12-14----------------15-14-12-14-12-|
---------------------------------------------------------|
---------------------------------------------------------|
---------------------------------------------------------|
---------------------------------------------------------|
---------------------------------------------------------|


   |--3-| |-3-|  |-3-|  |-3-| |--3-| |--3-|  |--3-|  |--
   S S  S S S S  S S S  S S S S  S S S  S S  S  S S  S
--------------------------------------------------9-10-1-|
--10-9------------------------------------9-10-12--------|
-------11-9-7-9-11-9-7-------------7-9-11----------------|
-----------------------11-9-7-9-11-----------------------|
---------------------------------------------------------|
---------------------------------------------------------|
---------------------------------------------------------|


                   PM PM                     PM PM
  Q    E  E  E  E  E  E     Q    E  E  E  E  E  E
-------------------------|-------------------------|
-------------------------|-------------------------|
-------------------------|-------------------------|
-------------------------|-------------------------|
-------------------------|-------------------------|
--7----x--5--L--5--------|--7----x--5--L--5--------|
--5----x--3--L--3--0--3--|--5----x--3--L--3--0--3--|


                   PM PM                     PM PM
  Q    E  E  E  E  E  E     Q    E  E  E  E  E  E
-------------------------|-------------------------|
-------------------------|-------------------------|
-------------------------|-------------------------|
-------------------------|-------------------------|
-------------------------|-------------------------|
--7----x--5--L--5--------|--7----x--5--L--5--------|
--5----x--3--L--3--0--3--|--5----x--3--L--3--0--3--|


                   PM PM                     PM PM
  Q    E  E  E  E  E  E     Q    E  E  E  E  E  E
-------------------------|-------------------------|
-------------------------|-------------------------|
-------------------------|-------------------------|
-------------------------|-------------------------|
-------------------------|-------------------------|
--7----x--5--L--5--------|--7----x--5--L--5--------|
--5----x--3--L--3--0--3--|--5----x--3--L--3--0--3--|


                   PM PM                     PM PM
  Q    E  E  E  E  E  E     Q    E  E  E  E  E  E
-------------------------|-------------------------|
-------------------------|-------------------------|
-------------------------|-------------------------|
-------------------------|-------------------------|
-------------------------|-------------------------|
--7----x--5--L--5--------|--7----x--5--L--5--------|
--5----x--3--L--3--0--3--|--5----x--3--L--3--0--3--|


     PM PM PM PM PM PM PM PM PM PM PM PM PM PM
  E  S  S  S  S  S  S  S  S  S  S  S  S  S  S
-----------------------------------------------|
-----------------------------------------------|
-----------------------------------------------|
-----------------------------------------------|
--4--------------------------------------------|
--2--2--2--2--2--2--2--2--2--2--2--2--2--2--2--|
-----------------------------------------------|


     PM PM PM PM PM PM PM PM PM PM PM PM PM PM
  E  S  S  S  S  S  S  S  S  S  S  S  S  S  S
-----------------------------------------------|
-----------------------------------------------|
-----------------------------------------------|
-----------------------------------------------|
--4--------------------------------------------|
--2--2--2--2--2--2--2--2--2--2--2--2--2--2--2--|
-----------------------------------------------|


     PM PM PM PM PM PM PM PM PM PM PM PM PM PM
  E  S  S  S  S  S  S  S  S  S  S  S  S  S  S
-----------------------------------------------|
-----------------------------------------------|
-----------------------------------------------|
-----------------------------------------------|
--4--------------------------------------------|
--2--2--2--2--2--2--2--2--2--2--2--2--2--2--2--|
-----------------------------------------------|


     PM PM PM PM PM PM PM PM PM PM PM PM PM PM
  E  S  S  S  S  S  S  S  S  S  S  S  S  S  S
-----------------------------------------------|
-----------------------------------------------|
-----------------------------------------------|
-----------------------------------------------|
--4--------------------------------------------|
--2--2--2--2--2--2--2--2--2--2--2--2--2--2--2--|
-----------------------------------------------|


        PM PM PM PM PM PM PM PM PM PM
  |--3--|  |--3--|  |--3--|  |--3--|
  E  E  E  E  E  E  E  E  E  E  E  E
--------------------------------------|
--------------------------------------|
--------------------------------------|
--------------------------------------|
--------------------3--2--0-----------|
--0--L--0--4--1--0-----------4--1--0--|
--------------------------------------|


  PM PM PM PM PM PM
  |--3--|  |--3--|
  E  E  E  E  E  E
--------------------|
--------------------|
--------------------|
--------------------|
--5--3--2-----------|
-----------4--1--0--|
--------------------|


        PM PM PM PM PM PM PM PM PM PM
  |--3--|  |--3--|  |--3--|  |--3--|
  E  E  E  E  E  E  E  E  E  E  E  E
--------------------------------------|
--------------------------------------|
--------------------------------------|
--------------------------------------|
--------------------3--2--0--------0--|
--0--L--0--4--1--0-----------4--1-----|
--------------------------------------|


  PM PM PM PM PM PM
  |--3--|  |--3--|
  E  E  E  E  E  E
--------------------|
--------------------|
--------------------|
--------------------|
--5--7--8--3--5--7--|
--------------------|
--------------------|


        PM PM PM PM PM PM PM PM PM PM
  |--3--|  |--3--|  |--3--|  |--3--|
  E  E  E  E  E  E  E  E  E  E  E  E
--------------------------------------|
--------------------------------------|
--------------------------------------|
--------------------------------------|
--------------------3--2--0-----------|
--0--L--0--4--1--0-----------4--1--0--|
--------------------------------------|


  PM PM PM PM PM PM
  |--3--|  |--3--|
  E  E  E  E  E  E
--------------------|
--------------------|
--------------------|
--------------------|
--5--3--2-----------|
-----------4--1--0--|
--------------------|


        PM PM PM PM PM PM PM PM PM PM
  |--3--|  |--3--|  |--3--|  |--3--|
  E  E  E  E  E  E  E  E  E  E  E  E
--------------------------------------|
--------------------------------------|
--------------------------------------|
--------------------------------------|
--------------------3--2--0--------0--|
--0--L--0--4--1--0-----------4--1-----|
--------------------------------------|


   PM PM PM  PM PM PM PM  PM PM PM  PM  PM
   |--3--|   |--3--|  |---3--|  |---3---|
   E  E  E   E  E  E  E   E  E  E   E   E
-------------------------------------------|
-------------------------------------------|
-------------------------------------------|
-------------------------------------------|
--11--8--7-------------------7--8--11--12--|
------------10--8--7--8--10----------------|
-------------------------------------------|


        PM PM PM PM PM PM PM PM PM PM
  |--3--|  |--3--|  |--3--|  |--3--|
  E  E  E  E  E  E  E  E  E  E  E  E
--------------------------------------|
--------------------------------------|
--------------------------------------|
--------------------------------------|
--------------------3--2--0-----------|
--0--L--0--4--1--0-----------4--1--0--|
--------------------------------------|


  PM PM PM PM PM PM
  |--3--|  |--3--|
  E  E  E  E  E  E
--------------------|
--------------------|
--------------------|
--------------------|
--5--3--2-----------|
-----------4--1--0--|
--------------------|


        PM PM PM PM PM PM PM PM PM PM
  |--3--|  |--3--|  |--3--|  |--3--|
  E  E  E  E  E  E  E  E  E  E  E  E
--------------------------------------|
--------------------------------------|
--------------------------------------|
--------------------------------------|
--------------------3--2--0--------0--|
--0--L--0--4--1--0-----------4--1-----|
--------------------------------------|


  PM PM PM PM PM PM PM PM PM PM PM PM
  |--3--|  |--3--|  |--3--|  |--3--|
  E  E  E  E  E  E  E  E  E  E  E  E
--------------------------------------|
--------------------------------------|
--------------------------------------|
--------------------------------------|
--5--7--8--3--5--7--5--7--8--3--5--7--|
--------------------------------------|
--------------------------------------|


  PM PM PM PM PM PM PM PM PM PM PM PM PM PM PM
  |--3--|  |--3--|  |--3--|  |--3--|  |--3--|
  E  E  E  E  E  E  E  E  E  E  E  E  E  E  E
-----------------------------------------------|
-----------------------------------------------|
-----------------------------------------------|
-----------------------------------------------|
--5--7--8--3--5--7--2--3--5--0--2--3--------0--|
--------------------------------------1--4-----|
-----------------------------------------------|


        PM PM PM PM PM PM PM PM PM PM
  |--3--|  |--3--|  |--3--|  |--3--|
  E  E  E  E  E  E  E  E  E  E  E  E
--------------------------------------|
--------------------------------------|
--------------------------------------|
--------------------------------------|
--------------------3--2--0-----------|
--0--L--0--4--1--0-----------4--1--0--|
--------------------------------------|


  PM PM PM PM PM PM
  |--3--|  |--3--|
  E  E  E  E  E  E
--------------------|
--------------------|
--------------------|
--------------------|
--5--3--2-----------|
-----------4--1--0--|
--------------------|


        PM PM PM PM PM PM PM PM PM PM
  |--3--|  |--3--|  |--3--|  |--3--|
  E  E  E  E  E  E  E  E  E  E  E  E
--------------------------------------|
--------------------------------------|
--------------------------------------|
--------------------------------------|
--------------------3--2--0--------0--|
--0--L--0--4--1--0-----------4--1-----|
--------------------------------------|


  PM PM PM PM PM PM
  |--3--|  |--3--|
  E  E  E  E  E  E
--------------------|
--------------------|
--------------------|
--------------------|
--5--7--8--3--5--7--|
--------------------|
--------------------|


        PM PM PM PM PM PM PM PM PM PM
  |--3--|  |--3--|  |--3--|  |--3--|
  E  E  E  E  E  E  E  E  E  E  E  E
--------------------------------------|
--------------------------------------|
--------------------------------------|
--------------------------------------|
--------------------3--2--0-----------|
--0--L--0--4--1--0-----------4--1--0--|
--------------------------------------|


  PM PM PM PM PM PM
  |--3--|  |--3--|
  E  E  E  E  E  E
--------------------|
--------------------|
--------------------|
--------------------|
--5--3--2-----------|
-----------4--1--0--|
--------------------|


        PM PM PM PM PM PM PM PM PM PM
  |--3--|  |--3--|  |--3--|  |--3--|
  E  E  E  E  E  E  E  E  E  E  E  E
--------------------------------------|
--------------------------------------|
--------------------------------------|
--------------------------------------|
--------------------3--2--0--------0--|
--0--L--0--4--1--0-----------4--1-----|
--------------------------------------|


   PM PM PM  PM PM PM PM  PM PM PM  PM  PM
   |--3--|   |--3--|  |---3--|  |---3---|
   E  E  E   E  E  E  E   E  E  E   E   E
-------------------------------------------|
-------------------------------------------|
-------------------------------------------|
-------------------------------------------|
--11--8--7-------------------7--8--11--12--|
------------10--8--7--8--10----------------|
-------------------------------------------|


  PM PM PM PM PM PM PM PM PM
  |--3--|  |--3--|  |--3--|
  E  E  E  E  E  E  E  E  E
-----------------------------|
-----------------------------|
-----------------------------|
--9--7--6--------------------|
-----------8--7--5--5--------|
-----------------------8--7--|
-----------------------------|


  |--6--|  |---6--| |--6--|  |---6--|  |---6---|  |---6-
  S  S  S  S  S   S S  S  S  S  S   S  S   S   S  S   S
---------------------------------------------------------|
---------------------------------------------------------|
---------------------------------------------------------|
---------------------------------------------------------|
--------------------5h-7h-8p-7h-8h-11p-7h-11h-12p-8h-11--|h
--5h-7h-8p-7h-8h-10--------------------------------------|
---------------------------------------------------------|


    |-----3-----|      |-----3----|
    Q     Q     Q      Q    Q     Q
----------------------------------------|
----------------------------------------|
--/10~----9~----7~----------------------|
----------------------10----9~----7~----|
----------------------------------------|
----------------------------------------|
----------------------------------------|


  |------3-----|
  Q     Q      Q     H
-------------------------------|
-------------------------------|
--------------10~----9~--------|
--6~----7~---------------------|
-------------------------------|
-------------------------------|
-------------------------------|


   E  S S S S E  S S S S  E  S S
---------------------------------|
---------------------------------|
--10----------9----------10------|
---7----------7-----------7------|
------0-0-0-0----0-0-0-0-----0-0-|
---------------------------------|
---------------------------------|


  S S E  S S S S  E  S S E  S S
--------------------------------|
--------------------------------|
------9----------10------9------|
------7-----------7------7------|
--0-0----0-0-0-0-----0-0----0-0-|
--------------------------------|
--------------------------------|


   E  S S S S  E  S S S S  E  S S
----------------------------------|
----------------------------------|
--12----------10----------12------|
---9-----------9-----------9------|
------0-0-0-0-----0-0-0-0-----0-0-|
----------------------------------|
----------------------------------|


  S S  E  S S S S  E  S S  E  S S
----------------------------------|
----------------------------------|
------10----------12------10------|
-------9-----------9-------9------|
--0-0-----0-0-0-0-----0-0-----0-0-|
----------------------------------|
----------------------------------|


  E  S S S S E  S S S S E  S S
-------------------------------|
-------------------------------|
--9----------7----------9------|
--6----------6----------6------|
-----0-0-0-0----0-0-0-0----0-0-|
-------------------------------|
-------------------------------|


  S S E  S S S S E  S S E  S S
-------------------------------|
-------------------------------|
------7----------9------7------|
------6----------6------6------|
--0-0----0-0-0-0----0-0----0-0-|
-------------------------------|
-------------------------------|


  |--6--| |--6--| |---6--| |--6--| |---6--| |--6--| |--6
  S  S  S S  S  S S  S   S S  S  S S  S   S S  S  S S  S
---------------------------------------------------------|
---------------------------------------------------------|
----------------------------------------------------5h-7-|
---------------------------6h-7h-9----------6h-7h-9------|
----------5h-7h-8-7h-8h-10---------7h-8h-10--------------|
--5h-7h-8------------------------------------------------|
---------------------------------------------------------|


   E  S S S S E  S S S S  E  S S
---------------------------------|
---------------------------------|
--10----------9----------10------|
---7----------7-----------7------|
------0-0-0-0----0-0-0-0-----0-0-|
---------------------------------|
---------------------------------|


  S S E  S S S S  E  S S E  S S
--------------------------------|
--------------------------------|
------9----------10------9------|
------7-----------7------7------|
--0-0----0-0-0-0-----0-0----0-0-|
--------------------------------|
--------------------------------|


   E  S S S S  E  S S S S  E  S S
----------------------------------|
----------------------------------|
--12----------10----------12------|
---9-----------9-----------9------|
------0-0-0-0-----0-0-0-0-----0-0-|
----------------------------------|
----------------------------------|


  S S  E  S S S S  E  S S  E  S S
----------------------------------|
----------------------------------|
------10----------12------10------|
-------9-----------9-------9------|
--0-0-----0-0-0-0-----0-0-----0-0-|
----------------------------------|
----------------------------------|


  E  S S S S E  S S S S E  S S
-------------------------------|
-------------------------------|
--9----------7----------9------|
--6--0-0-0-0-6--0-------6------|
-----0-0-0-0----0-0-0-0----0-0-|
-------------------------------|
-------------------------------|


  S S E  S S S S E  S S E  S S
-------------------------------|
-------------------------------|
------7----------9------7------|
------6----------6------6------|
--0-0----0-0-0-0----0-0----0-0-|
-------------------------------|
-------------------------------|


   |--6-|  |--6--|  |--6-|  |--6--|  |--6--|  |---6--|
   S  S S  S S   S  S  S S  S  S  S  S  S  S  S  S   S
-------------8h-12p-8---------------------------12h-17p-|
----------10----------10---------------------13---------|
--------9----------------9----------------14------------|
-----10--------------------10----------14---------------|
--12--------------------------12-12-15------------------|
--------------------------------------------------------|
--------------------------------------------------------|


                         SH
    Q     E  E   Q       Q
-------------------------------|
-------------------------------|
--/10~----L--9~--L----<>10~----|
-------------------------------|
-------------------------------|
-------------------------------|
-------------------------------|


       SH
  E    E   Q     Q     Q
-----------------------------|
-----------------------------|
--L--<>9~--L----10~----9~----|
-----------------------------|
-----------------------------|
-----------------------------|
-----------------------------|


    Q     E   E   Q     Q
------------------------------|
------------------------------|
--/12~----L--10~--L----12~----|
------------------------------|
------------------------------|
------------------------------|
------------------------------|


                           SH
  E   E   Q       Q        Q
---------------------------------|
---------------------------------|
--L--10~--L----<>12~----<>10~----|
---------------------------------|
---------------------------------|
---------------------------------|
---------------------------------|


   Q     E  E   Q    Q        E  E   Q    Q     Q
---------------------------|--------------------------|
---------------------------|--------------------------|
--/9~----L--7~--L----9~----|--L--7~--L----9~----7~----|
---------------------------|--------------------------|
---------------------------|--------------------------|
---------------------------|--------------------------|
---------------------------|--------------------------|


    Q     E  E   Q     Q
-----------------------------|
-----------------------------|
--/10~----L--9~--L----10~----|
-----------------------------|
-----------------------------|
-----------------------------|
-----------------------------|


  E  E   Q     S  S S  S  S S  S  S
------------------------------------|
------------------------------------|
--L--9~--L----10-12-9-10----9-------|
-------------------------12---10-12-|
------------------------------------|
------------------------------------|
------------------------------------|


    Q     E   E   Q     Q
------------------------------|
------------------------------|
--/12~----L--10~--L----12~----|
------------------------------|
------------------------------|
------------------------------|
------------------------------|


  E   E   Q     S  S  S  S  S  S  S  S
---------------------------------------|
---------------------------------------|
--L--10~--L----12-14-10-12----10-------|
---------------------------14----12-14-|
---------------------------------------|
---------------------------------------|
---------------------------------------|


   Q     E  E   Q    Q        E  E  Q    Q    Q
---------------------------|-----------------------|
---------------------------|-----------------------|
--/9~----L--7~--L----5~----|--L--------------------|
---------------------------|-----9--L----7----6----|
---------------------------|-----------------------|
---------------------------|-----------------------|
---------------------------|-----------------------|


    Q     E  E   Q     Q
-----------------------------|
-----------------------------|
--/10~----L--9~--L----10~----|
-----------------------------|
-----------------------------|
-----------------------------|
-----------------------------|


            PM     PM     PM
  E  E   E  E   E  E   E  E
-----------------------------|
---------------10-----12-----|
--L--9~--L--9------9------9--|
-----------------------------|
-----------------------------|
-----------------------------|
-----------------------------|


                SH           SH
    Q     E     E   Q        Q
-----------------------------------|
-----------------------------------|
--/12~----L--<>10~--L----/<>12~----|
-----------------------------------|
-----------------------------------|
-----------------------------------|
-----------------------------------|


        SH      PM      PM      PM
  E     E   E   E   E   E   E   E
-----------------------------------|
-------------------13------12------|
--L--<>10~--L--10------10------10--|
-----------------------------------|
-----------------------------------|
-----------------------------------|
-----------------------------------|


   Q     E  E   Q    Q        E  E  Q    Q    Q
---------------------------|-----------------------|
---------------------------|-----------------------|
--/9~----L--7~--L----5~----|--L--------------------|
---------------------------|-----9--L----7----6----|
---------------------------|-----------------------|
---------------------------|-----------------------|
---------------------------|-----------------------|


   |--6--|
   S  S  S  S  S  S  S  S  S  S  S  S  S  S  S  S  S
--17-17-17-19-19-20-20-19-19-17-17-19-19-20-20-19-19-|
-----------------------------------------------------|
-----------------------------------------------------|
-----------------------------------------------------|
-----------------------------------------------------|
-----------------------------------------------------|
-----------------------------------------------------|


   S  S  S  S  S  S  S  S  S  S  S  S  S  S  S  S
--17-17-19-19-20-20-22-22-20-20-19-19-17-17-19-19-|
--------------------------------------------------|
--------------------------------------------------|
--------------------------------------------------|
--------------------------------------------------|
--------------------------------------------------|
--------------------------------------------------|


   |--6--|
   S  S  S  S  S  S  S  S  S  S  S  S  S  S  S  S  S
--19-19-19-20-20-22-22-20-20-19-19-20-20-22-22-20-20-|
-----------------------------------------------------|
-----------------------------------------------------|
-----------------------------------------------------|
-----------------------------------------------------|
-----------------------------------------------------|
-----------------------------------------------------|


   S  S  S  S  S  S  S  S  S  S  S  S  S  S  S  S
--19-19-20-20-22-22-24-24-22-22-20-20-19-19-20-20-|
--------------------------------------------------|
--------------------------------------------------|
--------------------------------------------------|
--------------------------------------------------|
--------------------------------------------------|
--------------------------------------------------|


   S  S  S  S  S  S  S  S  S  S  S  S  S  S  S  S
--16-16-17-17-19-19-17-17-16-16-17-17-19-19-17-17-|
--------------------------------------------------|
--------------------------------------------------|
--------------------------------------------------|
--------------------------------------------------|
--------------------------------------------------|
--------------------------------------------------|


   S  S  S  S  S  S  S  S  S  S  S  S  S  S  S  S
--16-16-17-17-19-19-20-20-19-19-17-17-16-16-17-17-|
--------------------------------------------------|
--------------------------------------------------|
--------------------------------------------------|
--------------------------------------------------|
--------------------------------------------------|
--------------------------------------------------|


   |--6--|  |--6--|  |--6--|  |--6--|  |--6--|  |--6--|
   S  S  S  S  S  S  S  S  S  S  S  S  S  S  S  S  S  S
--------------------------------------------------------|
-----------------------------------------------13-15-17-|
-----------11-12-14----------12-14-16-12-14-16----------|
--11-12-14----------12-14-16----------------------------|
--------------------------------------------------------|
--------------------------------------------------------|
--------------------------------------------------------|


   S  S  S  S  S  S  S  S  S  S  S  S  S  S  S  S
--------------------------------------------------|
--10-13-12-13-10-13-12-13-10-13-12-13-10-13-12-13-|
--------------------------------------------------|
--------------------------------------------------|
--------------------------------------------------|
--------------------------------------------------|
--------------------------------------------------|


  S  S  S  S S  S  S  S S  S  S  S S  S  S  S
----------------------------------------------|
--9-12-10-12-9-12-10-12-9-12-10-12-9-12-10-12-|
----------------------------------------------|
----------------------------------------------|
----------------------------------------------|
----------------------------------------------|
----------------------------------------------|


   S  S  S  S  S  S  S  S  S  S  S  S  S  S  S  S
--------------------------------------------------|
--12-15-13-15-12-15-13-15-12-15-13-15-12-15-13-15-|
--------------------------------------------------|
--------------------------------------------------|
--------------------------------------------------|
--------------------------------------------------|
--------------------------------------------------|


   S  S  S  S  S  S  S  S  S  S  S  S  S  S  S  S
--------------------------------------------------|
--10-13-12-13-10-13-12-13-10-13-12-13-10-13-12-13-|
--------------------------------------------------|
--------------------------------------------------|
--------------------------------------------------|
--------------------------------------------------|
--------------------------------------------------|


  S  S S  S S  S S  S S  S S  S S  S S  S
------------------------------------------|
--6-10-9-10-6-10-9-10-7-10-9-10-7-10-9-10-|
------------------------------------------|
------------------------------------------|
------------------------------------------|
------------------------------------------|
------------------------------------------|


  S  S  S  S S  S  S  S S  S  S  S S  S  S  S
----------------------------------------------|
--8-12-10-12-8-12-10-12-9-12-10-12-9-12-10-12-|
----------------------------------------------|
----------------------------------------------|
----------------------------------------------|
----------------------------------------------|
----------------------------------------------|


   S  S  S  S  S  S  S  S  S  S  S  S  S  S  S  S
--------------------------------------------------|
--10-13-12-13-10-13-12-13-10-13-12-13-10-13-12-13-|
--------------------------------------------------|
--------------------------------------------------|
--------------------------------------------------|
--------------------------------------------------|
--------------------------------------------------|


  S  S  S  S S  S  S  S S  S  S  S S  S  S  S
----------------------------------------------|
--9-12-10-12-9-12-10-12-9-12-10-12-9-12-10-12-|
----------------------------------------------|
----------------------------------------------|
----------------------------------------------|
----------------------------------------------|
----------------------------------------------|


   S  S  S  S  S  S  S  S  S  S  S  S  S  S  S  S
--------------------------------------------------|
--12-15-13-15-12-15-13-15-12-15-13-15-12-15-13-15-|
--------------------------------------------------|
--------------------------------------------------|
--------------------------------------------------|
--------------------------------------------------|
--------------------------------------------------|


   S  S  S  S  S  S  S  S  S  S  S  S  S  S  S  S
--------------------------------------------------|
--10-13-12-13-10-13-12-13-10-13-12-13-10-13-12-13-|
--------------------------------------------------|
--------------------------------------------------|
--------------------------------------------------|
--------------------------------------------------|
--------------------------------------------------|


  S  S S  S S  S S  S S  S S  S S  S S  S
------------------------------------------|
--6-10-9-10-6-10-9-10-7-10-9-10-7-10-9-10-|
------------------------------------------|
------------------------------------------|
------------------------------------------|
------------------------------------------|
------------------------------------------|


  S  S  S  S S  S  S  S S  S  S  S S  S  S  S
----------------------------------------------|
--8-12-10-12-8-12-10-12-9-12-10-12-9-12-10-12-|
----------------------------------------------|
----------------------------------------------|
----------------------------------------------|
----------------------------------------------|
----------------------------------------------|


   S  S  S  S  S  S  S  S  S  S  S  S S  S  S S
--------------------------10-13-12-10-8-12-10-8-|
--10-13-12-13-10-13-12-13-----------------------|
------------------------------------------------|
------------------------------------------------|
------------------------------------------------|
------------------------------------------------|
------------------------------------------------|


   S  S  S  S  S  S  S  S  S  S  S  S  S  S  S  S
--10-13-12-13-10-13-12-13-13-17-15-13-12-15-13-12-|
--------------------------------------------------|
--------------------------------------------------|
--------------------------------------------------|
--------------------------------------------------|
--------------------------------------------------|
--------------------------------------------------|


   S  S  S  S  S  S  S  S  S  S  S  S  S  S  S  S
--------------------------12-15-13-12-10-13-12-10-|
--13-17-15-17-13-17-15-17-------------------------|
--------------------------------------------------|
--------------------------------------------------|
--------------------------------------------------|
--------------------------------------------------|
--------------------------------------------------|


   S  S  S  S  S  S  S  S  S  S  S  S S  S  S S
--------------------------10-13-12-10-8-12-10-8-|
--12-15-13-15-12-15-13-15-----------------------|
------------------------------------------------|
------------------------------------------------|
------------------------------------------------|
------------------------------------------------|
------------------------------------------------|


  S  S  S  S  S  S  S  S
-------------------------|
--9-12-10-12-12-15-13-15-|
-------------------------|
-------------------------|
-------------------------|
-------------------------|
-------------------------|


   S  S  S  S  S  S  S  S  S  S  S  S S  S  S S
--------------------------10-13-12-10-8-12-10-8-|
--10-13-12-13-10-13-12-13-----------------------|
------------------------------------------------|
------------------------------------------------|
------------------------------------------------|
------------------------------------------------|
------------------------------------------------|


   S  S  S  S  S  S  S  S  S  S  S  S  S  S  S  S
--10-13-12-13-10-13-12-13-13-17-15-13-12-15-13-12-|
--------------------------------------------------|
--------------------------------------------------|
--------------------------------------------------|
--------------------------------------------------|
--------------------------------------------------|
--------------------------------------------------|


   S  S  S  S  S  S  S  S  S  S  S  S  S  S  S  S
--------------------------12-15-13-12-10-13-12-10-|
--13-17-15-17-13-17-15-17-------------------------|
--------------------------------------------------|
--------------------------------------------------|
--------------------------------------------------|
--------------------------------------------------|
--------------------------------------------------|


   S  S  S  S  S  S  S  S  S  S  S  S S  S  S S
--------------------------10-13-12-10-8-12-10-8-|
--12-15-13-15-12-15-13-15-----------------------|
------------------------------------------------|
------------------------------------------------|
------------------------------------------------|
------------------------------------------------|
------------------------------------------------|


  S  S  S  S  S  S  S  S
-------------------------|
--9-12-10-12-12-15-13-15-|
-------------------------|
-------------------------|
-------------------------|
-------------------------|
-------------------------|


  S  S  S  S  S  S  S  S  S  S  S  S  S  S  S  S
-------------------------------------------------|
-------------10-13-12-13-------------12-15-13-15-|
--9-12-10-12-------------11-14-13-14-------------|
-------------------------------------------------|
-------------------------------------------------|
-------------------------------------------------|
-------------------------------------------------|


  S  S  S  S S  S  S  S  S  S  S  S  S  S  S  S
-------------8-12-10-12-13-17-16-17-16-19-17-19-|
--9-12-10-12------------------------------------|
------------------------------------------------|
------------------------------------------------|
------------------------------------------------|
------------------------------------------------|
------------------------------------------------|


  S  S  S  S  S  S  S  S  S  S  S  S  S  S  S  S
-------------------------------------------------|
-------------10-13-12-13-------------12-15-13-15-|
--9-12-10-12-------------11-14-13-14-------------|
-------------------------------------------------|
-------------------------------------------------|
-------------------------------------------------|
-------------------------------------------------|


  S  S  S  S S  S  S  S  S  S  S  S  S  S  S  S
-------------8-12-10-12-13-17-16-17-16-19-17-19-|
--9-12-10-12------------------------------------|
------------------------------------------------|
------------------------------------------------|
------------------------------------------------|
------------------------------------------------|
------------------------------------------------|


   S  S  S  S  S  S  S  S  S  S  S  S  S  S  S  S
--17-20-19-20-19-22-20-22-20-24-22-24-19-22-20-22-|
--------------------------------------------------|
--------------------------------------------------|
--------------------------------------------------|
--------------------------------------------------|
--------------------------------------------------|
--------------------------------------------------|


   S  S  S  S  S  S  S  S
--17-20-19-20-16-19-17-18-|
--------------------------|
--------------------------|
--------------------------|
--------------------------|
--------------------------|
--------------------------|


   |--6--|  |--6--|  |--6--|  |--6--|  |--6--|  |--6--|
   S  S  S  S  S  S  S  S  S  S  S  S  S  S  S  S  S  S
--17-16-13----------------------------------------------|
-----------17-15-13-------------------------------------|
--------------------16-14-13-14-13-10-------------------|
--------------------------------------14-12-10----------|
-----------------------------------------------14-12-11-|
--------------------------------------------------------|
--------------------------------------------------------|


   S  S  S S  S S  S  S  S   S  S  S  S  S  S   S
--12p-8---------8-12p-8-15p-12----------12-15p-12-|
--------10---10----------------13----13-----------|
-----------9----------------------12--------------|
--------------------------------------------------|
--------------------------------------------------|
--------------------------------------------------|
--------------------------------------------------|


   S  S S S S S  S  S  S  S  S S  S S  S  S
--10p-7-------7-10p-7-12p-8---------8-12p-8-|
--------8---8---------------10---10---------|
----------7--------------------9------------|
--------------------------------------------|
--------------------------------------------|
--------------------------------------------|
--------------------------------------------|


  S  S S S S S S  S S  S S S S S S  S
--8p-5-------5-8p-5-8p-5-------5-8p-5-|
-------6---6-------------7---7--------|
---------5-----------------5----------|
--------------------------------------|
--------------------------------------|
--------------------------------------|
--------------------------------------|


   S  S S S S S  S  S  S  S S S S S  S  S
--10p-7-------7-10p-7-10p-7-------7-10p-7-|
--------8---8---------------9---9---------|
----------7-------------------7-----------|
------------------------------------------|
------------------------------------------|
------------------------------------------|
------------------------------------------|


   S  S  S S  S S  S  S  S   S  S  S  S  S  S   S
--12p-8---------8-12p-8-15p-12----------12-15p-12-|
--------10---10----------------13----13-----------|
-----------9----------------------12--------------|
--------------------------------------------------|
--------------------------------------------------|
--------------------------------------------------|
--------------------------------------------------|


   S  S S S S S  S  S  S  S  S S  S S  S  S
--10p-7-------7-10p-7-12p-8---------8-12p-8-|
--------8---8---------------10---10---------|
----------7--------------------9------------|
--------------------------------------------|
--------------------------------------------|
--------------------------------------------|
--------------------------------------------|


  S  S S S S S S  S S  S S S S S S  S
--8p-5-------5-8p-5-8p-5-------5-8p-5-|
-------6---6-------------7---7--------|
---------5-----------------5----------|
--------------------------------------|
--------------------------------------|
--------------------------------------|
--------------------------------------|


   S  S S S S S  S  S  S S S S S S  S  S
--10p-7-------7-10p-7-10-7-------7-10p-7-|
--------8---8--------------9---9---------|
----------7------------------7-----------|
-----------------------------------------|
-----------------------------------------|
-----------------------------------------|
-----------------------------------------|


   S  S  S S  S S  S S  S   S  S  S  S  S  S   S
--12p-8---------8-12-8-17p-13----------13-17p-13-|
--------10---10---------------15----15-----------|
-----------9---------------------14--------------|
-------------------------------------------------|
-------------------------------------------------|
-------------------------------------------------|
-------------------------------------------------|


   S   S  S  S  S  S  S   S  S   S  S  S  S  S  S   S
--15p-12----------12-15p-12-18p-15----------15-18p-15-|
---------13----13------------------16----16-----------|
------------12------------------------15--------------|
------------------------------------------------------|
------------------------------------------------------|
------------------------------------------------------|
------------------------------------------------------|


   S   S  S  S  S  S  S   S
--19p-15----------15-19p-15-|
---------16----16-----------|
------------15--------------|
----------------------------|
----------------------------|
----------------------------|
----------------------------|


   S  S  S S  S S  S  S  S   S  S  S  S  S  S   S
--12p-8---------8-12p-8-17p-13----------13-17p-13-|
--------10---10----------------15----15-----------|
-----------9----------------------14--------------|
--------------------------------------------------|
--------------------------------------------------|
--------------------------------------------------|
--------------------------------------------------|


   S   S  S  S  S  S  S   S  S   S  S  S  S  S  S   S
--15p-12----------12-15p-12-18p-15----------15-18p-15-|
---------13----13------------------16----16-----------|
------------12------------------------15--------------|
------------------------------------------------------|
------------------------------------------------------|
------------------------------------------------------|
------------------------------------------------------|


   S   S  S  S  S  S  S   S
--19p-15----------15-19p-15-|
---------16----16-----------|
------------15--------------|
----------------------------|
----------------------------|
----------------------------|
----------------------------|


   S   S  S  S  S  S  S   S  S   S  S  S  S  S  S   S
--20p-17----------17-20p-17-19p-15----------15-19p-15-|
---------17----17------------------15----15-----------|
------------17------------------------16--------------|
------------------------------------------------------|
------------------------------------------------------|
------------------------------------------------------|
------------------------------------------------------|


   S   S  S  S  S  S  S   S  S   S  S  S  S  S  S   S
--17p-13----------13-17p-13-19p-15----------15-19p-15-|
---------13----13------------------15----15-----------|
------------14------------------------16--------------|
------------------------------------------------------|
------------------------------------------------------|
------------------------------------------------------|
------------------------------------------------------|


   S   S  S  S  S  S  S   S  S   S  S  S  S  S  S   S
--20p-17----------17-20p-17-19p-15----------15-19p-15-|
---------17----17------------------15----15-----------|
------------17------------------------16--------------|
------------------------------------------------------|
------------------------------------------------------|
------------------------------------------------------|
------------------------------------------------------|


   S   S  S  S  S  S  S   S  S   S  S  S  S  S  S   S
--17p-13----------13-17p-13-19p-15----------15-19p-15-|
---------13----13------------------15----15-----------|
------------14------------------------16--------------|
------------------------------------------------------|
------------------------------------------------------|
------------------------------------------------------|
------------------------------------------------------|


   S  S  S S  S S  S  S  S   S  S  S  S  S  S   S
--12p-8---------8-12p-8-15p-12----------12-15p-12-|
--------10---10----------------13----13-----------|
-----------9----------------------12--------------|
--------------------------------------------------|
--------------------------------------------------|
--------------------------------------------------|
--------------------------------------------------|


   S  S S S S S  S  S  S  S  S S  S S  S  S
--10p-7-------7-10p-7-12p-8---------8-12p-8-|
--------8---8---------------10---10---------|
----------7--------------------9------------|
--------------------------------------------|
--------------------------------------------|
--------------------------------------------|
--------------------------------------------|


  S  S S S S S S  S S  S S S S S S  S
--8p-5-------5-8p-5-8p-5-------5-8p-5-|
-------6---6-------------7---7--------|
---------5-----------------5----------|
--------------------------------------|
--------------------------------------|
--------------------------------------|
--------------------------------------|


   S  S S S S S  S  S  S  S S S S S  S  S
--10p-7-------7-10p-7-10p-7-------7-10p-7-|
--------8---8---------------9---9---------|
----------7-------------------7-----------|
------------------------------------------|
------------------------------------------|
------------------------------------------|
------------------------------------------|


   S  S  S S  S S  S  S  S   S  S  S  S  S  S   S
--12p-8---------8-12p-8-15p-12----------12-15p-12-|
--------10---10----------------13----13-----------|
-----------9----------------------12--------------|
--------------------------------------------------|
--------------------------------------------------|
--------------------------------------------------|
--------------------------------------------------|


   S  S S S S S  S  S  S  S  S S  S S  S  S
--10p-7-------7-10p-7-12p-8---------8-12p-8-|
--------8---8---------------10---10---------|
----------7--------------------9------------|
--------------------------------------------|
--------------------------------------------|
--------------------------------------------|
--------------------------------------------|


  S  S S S S S S  S S  S S S S S S  S
--8p-5-------5-8p-5-8p-5-------5-8p-5-|
-------6---6-------------7---7--------|
---------5-----------------5----------|
--------------------------------------|
--------------------------------------|
--------------------------------------|
--------------------------------------|


   S  S S S S S  S  S  S  S S S S S  S  S
--10p-7-------7-10p-7-10p-7-------7-10p-7-|
--------8---8---------------9---9---------|
----------7-------------------7-----------|
------------------------------------------|
------------------------------------------|
------------------------------------------|
------------------------------------------|


  S  S S S S S S  S S  S S S S S S  S
--7p-3-------3-7p-3-7p-3-------3-7p-3-|
-------5---5-------------5---5--------|
---------4-----------------4----------|
--------------------------------------|
--------------------------------------|
--------------------------------------|
--------------------------------------|


  S  S S S S S S  S S  S S S S S S  S
--8p-5-------5-8p-5-8p-5-------5-8p-5-|
-------6---6-------------6---6--------|
---------5-----------------5----------|
--------------------------------------|
--------------------------------------|
--------------------------------------|
--------------------------------------|


  S  S S S S S S  S S  S S S S S S  S
--7p-3-------3-7p-3-7p-3-------3-7p-3-|
-------5---5-------------5---5--------|
---------4-----------------4----------|
--------------------------------------|
--------------------------------------|
--------------------------------------|
--------------------------------------|


  S  S S S S S S  S S  S S S S S S  S
--8p-5-------5-8p-5-8p-5-------5-8p-5-|
-------6---6-------------6---6--------|
---------5-----------------5----------|
--------------------------------------|
--------------------------------------|
--------------------------------------|
--------------------------------------|


  S  S S S  S S S  S S S  S S S  S S S
--5p-1--------1-5p-2--------2-5p-2------|
-------3-------------3-------------3----|
---------2h-3----------2h-3----------2h-|
----------------------------------------|
----------------------------------------|
----------------------------------------|
----------------------------------------|


  S S S  S S S S S
----2-7p-4-------4-|
-----------5-------|
--4----------4-5---|
-------------------|
-------------------|
-------------------|
-------------------|


  S  S S S S   S S S  S  S  S  S  S   S  S  S
--8p-5-------------7-11p-8-----------------10-|
-------7---------9---------10-----------12----|
---------8-7h-10--------------11-10h-13-------|
----------------------------------------------|
----------------------------------------------|
----------------------------------------------|
----------------------------------------------|


   S   S  S  S  S   S  S  S  S   S  S  S  S   S  S  S  S
--14p-11-----------------13-17p-14-----------------16-20-|
---------13-----------15-----------16-----------18-------|
------------14-13h-16-----------------17-16h-19----------|
---------------------------------------------------------|
---------------------------------------------------------|
---------------------------------------------------------|
---------------------------------------------------------|


    S  E    S
---------------||
---------------||
--(17)----(17)-||
---------------||
---------------||
---------------||
---------------||


Duration Legend
---------------
W - whole
H - half
Q - quarter
E - 8th
S - 16th
T - 32nd
X - 64th
. - note dotted
|-n-|  - n-tuplets


Tablature Legend
----------------
L - tied note
x - dead note
g - grace note
(n) - ghost note
> - accentuded note
NH - natural harmonic
AH - artificial harmonic
TH - tapped harmonic
SH - semi harmonic
PH - pitch harmonic
h - hammer on
p - pull off
b - bend
br - bendRelease
pb - preBend
pbr - preBendRelease
brb - bendReleaseBend
\n/ - tremolo bar dip
\n - tremolo bar dive
-/n - tremolo bar Release up
/n\ - tremolo bar inverted dip
/n - tremolo bar return
-\n - tremolo bar Release down
S - shift slide
s - legato slide
/ -  slide into from below or out of upwards
\ -  slide into from above or out of downwards
~ - vibrato
W - wide vibrato
tr - trill
TP - tremolo picking
T - tapping
S - slap
P - pop
< - fade in
^ - brush up
v - brush down
Suggest correction
Creating personal tab
Creating personal tab
You can edit any tab online and save it as your Personal.

You can edit, replace or remove any tab part or add personal notes – all changes will be seen only by you.

Personal tabs can be accessed anytime from any device, even offline.
Learn more »
comments
print report bad tab
2 comments total.
0 reply
TheShred201 316 Feb 07, 2008 01:33 PM

Haha...you didn't need to copy the Spanish comment in it! I just forgot to delete it when I made mine (The one I used as a base had it). Let me know if you get GP working. Also, if you want some power tab stuff, I have a lot of Shawn lane PT's that need a good deal of editing.

0 reply
Shred4chaos 70 Feb 10, 2008 10:58 PM

Awesome work cheers:)

guest
You may want to rate the tab now too:
select rating
Wanna post a correction for this tab? Suggest correction