Oops, an error
Loading. Please wait.

Lost Boy Tab

version 2
version 2

Whole song

  • It has the lyrics under the notes and states where... Show more

Interactive

796 views 291 this week
no commentswrite comment
1 2 3 4 5
3 more votes to show rating
add to favorites
launch autoscroll
font size
0
reset
how to read this tab
guitar tuner
Autoscroll
slow
fast
+/-
esc
set tempo
stop
Help us to improve Ultimate-Guitar.com Take our survey!
×
Author
Difficulty
intermediate
About this tab version
It has the lyrics under the notes and states where the verse and chorus starts so you won't get confused. Was this info helpful? Yes No
This is the tab based on Brent Robitaille's youtube video
link: https://www.youtube.com/watch?v=dLmP2jF9c4o

i tried to match up the notes with the lyrics so yeah
also this is supposed to go with the piano accompaniment 

link: https://joycemusic1.files.wordpress.com/2016/08/lost_boy_-_ruth_b.pdf
welp first tab here we go :P

[Intro] Opening chords: Em G C G (one bar each)
e|---------0------|---------0--------|---------0------------|-----------0-------|
B|-0---3-------0--|--0---3-------0---|-0--3-------0---------|--0----3---------0-|
G|----------------|------------------|---------------2---0--|-------------------|
D|----------------|------------------|----------------------|-------------------|
A|----------------|------------------|----------------------|-------------------|
E|----------------|------------------|----------------------|-------------------|
 There was a time | when I was alone | Nowhere to go and no | place to call home

e|------0---3----2----0--|---------------------|-0-----------------------|------------|
B|-0--3------------------|--3--0---1---3---3---|---3---0--3-----0--------|--0---0-----|
G|-----------------------|---------------------|---------------------2---|----2------0|
D|-----------------------|---------------------|-------------------------|------------|
A|-----------------------|---------------------|-------------------------|------------|
E|-----------------------|---------------------|-------------------------|------------|
  My only friend was the | man in the moon And | even sometimes he would | go away, too

[Verse]2
e|------0----3----2--0-|----------------|---------------|-------------|
B|-0-3-----------------|-----3--0---3---|-3-0------0----|--0----------|
G|---------------------|----------------|-------2-----2-|-----2---0---|
D|---------------------|----------------|---------------|-------------|
A|---------------------|----------------|---------------|-------------|
E|---------------------|----------------|---------------|-------------|
  Then one night, as I | closed my eyes,| I saw a shadow| flying high

e|--------0--------------|----------------|--0--3---0------------|------------------------|
B|0--3-------0-----------|------------0---|------------3--0------|--0-------------------0-|
G|---------------2---0---|--0--2----------|-------------------2--|------2---0---0--0------|
D|-----------------------|----------------|----------------------|------------------------|
A|-----------------------|----------------|----------------------|------------------------|
E|-----------------------|----------------|----------------------|------------------------|
  He came to me with the | sweetest smile | Told me he wanted to | talk for awhile He said

e|-----------|---------------------------|-----------------------|------------------|
B|-0---------|-----------------------0---|----0--0---------------|--3-3--0----------|
G|---2---2---|--2-----2----0----2--------|-2---------2-----2-----|----------2---0---|
D|-----------|---------------------------|-----------------------|------------------|
A|-----------|---------------------------|-----------------------|------------------|
E|-----------|---------------------------|-----------------------|------------------|
 "Peter Pan. | That's what they call me. | I promise that you'll | never be lonely."

e|---0-------|--3----5-7-5|-5------|
B|-------3---|------------|--------|
G|0----------|------------|--------|
D|-----------|------------|--------|
A|-----------|------------|--------|
E|-----------|------------|--------|
    And ever | since that | day...

[Chorus] 
e|----------------|-----------------|--------------------------|--------------|
B|0---0---3-------|---0-----3---0---|-1-0----1---0----1--------|-0-3-0--------|
G|--2---------0---|0------2---------|----------------------0---|--------2-----|
D|----------------|-----------------|--------------------------|--------------|
A|----------------|-----------------|--------------------------|--------------|
E|----------------|-----------------|--------------------------|--------------|
  I am a lost boy |  from Neverland | Usually hanging out with | Peter Pan

e|--------------------------|--0----------------|------------------------|-------------|
B|---0--------0----3-----3--|-------3--0-----0--|-1--0---1---0--1--------|--0-3-----0--|
G|0------2------------------|-------------2-----|--------------------0---|-------------|
D|--------------------------|-------------------|------------------------|-------------|
A|--------------------------|-------------------|------------------------|-------------|
E|--------------------------|-------------------|------------------------|-------------|
    And when we're bored we | play in the woods | Always on the run from | Captain Hook
 
e|--3-----2---|--0---------|----------0------|-----------------|---3----2---|0------|-----0--|
B|------------|-------3----|-3--0--3-----0---|-(0)--0----------|------------|-----3-|3-0-3--0|
G|------------|------------|-----------------|----2---2--0-----|------------|-------|--------|
D|------------|------------|-----------------|-----------------|------------|-------|--------|
A|------------|------------|-----------------|-----------------|------------|-------|--------|
E|------------|------------|-----------------|-----------------|------------|-------|--------|
   "Run, run, | lost boy," | they say to me, | (drag the 'me') | "Away from | all of| reality."

e|---------------|---------------------|-----------------------|-----------0---------|----|
B|0---0----------|-0-3--3----0--3------|--0----3---3----3------|0----3---------0-----|----|
G|--2-----2---0--|-------------------0-|---------------------0-|------------------2--|-0--| x2 (repeat from
D|---------------|---------------------|-----------------------|---------------------|----|     neverland)
A|---------------|---------------------|-----------------------|---------------------|----|
E|---------------|---------------------|-----------------------|---------------------|----|
 (drag 'reality')|Neverland is home to | lost boys like me And |lost boys like me are|free

[Verse 2] 1:56
e|---------------------------------|--------------------|0-3-0--------------|-------------|
B|---0--------0------0----0--------|-0------0---3---3---|-----3---0---------|-0-----------|
G|-----2---------2-----2-------2---|----2---------------|-------------2-----|----2---0--0-|
D|---------------------------------|--------------------|-------------------|-------------|
A|---------------------------------|--------------------|-------------------|-------------|
E|---------------------------------|--------------------|-------------------|-------------|
 He sprinkled me in pixie dust and | told me to believe | Believe in him and| believe in me

e|--------------------------|---------------------|-0--3--5--7---5--3-|-3--3---|
B|-0----0-------0--------0--|-0------0---1-----3--|-------------------|--3-----|
G|---2-----2---------2------|----2----------------|-------------------|-----0-0|
D|--------------------------|---------------------|-------------------|--------|
A|--------------------------|---------------------|-------------------|--------|
E|--------------------------|---------------------|-------------------|--------|
  Together we will fly away | in a cloud of green | To your beautiful | destiny

e|---------------------|------------0--------------|--0--------0--------------|-------|
B|0------0-------0-----|--0------------------------|-----3--0------3---0---1--|-3-----|
G|---2-------2------2--|-----2---------------3---3-|--------------------------|----2--|
D|---------------------|---------------------------|--------------------------|-------|
A|---------------------|---------------------------|--------------------------|-------|
E|---------------------|---------------------------|--------------------------|-------|
 As we soared above the|town that never loved me I | realised I finally had a |family

e|---------------------|-0--------|-0-3-0------------------|----------|
B|-----------0---3-----|---0-0-0--|-----------3----0-------|-0----0-3-|
G|-2---2---------------|----------|---------------------2--|---2------|
D|---------------------|----------|------------------------|----------|
A|---------------------|----------|------------------------|----------|
E|---------------------|----------|------------------------|----------|
Soon enough we reached | Neverland| Peacefully my feet hit | the sand

e|-0-------|---3----5---|--5------------------------------------------------------|
B|-----3---|------------|---------------------------------------------------------|
G|---------|------------|---------------------------------------------------------|
D|---------|------------|---------------------------------------------------------|
A|---------|------------|---------------------------------------------------------|
E|---------|------------|---------------------------------------------------------|
  And ever | since that |day...

[Chorus]
e|----------------|-----------------|--------------------------|--------------|
B|0---0---3-------|---0-----3---0---|-1-0----1---0----1--------|-0-3-0--------|
G|--2---------0---|0------2---------|----------------------0---|--------2-----|
D|----------------|-----------------|--------------------------|--------------|
A|----------------|-----------------|--------------------------|--------------|
E|----------------|-----------------|--------------------------|--------------|
  I am a lost boy |  from Neverland | Usually hanging out with | Peter Pan

e|--------------------------|--0----------------|------------------------|-------------|
B|---0--------0----3-----3--|-------3--0-----0--|-1--0---1---0--1--------|--0-3-----0--|
G|0------2------------------|-------------2-----|--------------------0---|-------------|
D|--------------------------|-------------------|------------------------|-------------|
A|--------------------------|-------------------|------------------------|-------------|
E|--------------------------|-------------------|------------------------|-------------|
    And when we're bored we | play in the woods | Always on the run from | Captain Hook
 
e|--3-----2---|--0---------|----------0------|-----------------|---3----2---|0------|-----0--|
B|------------|-------3----|-3--0--3-----0---|-(0)--0----------|------------|-----3-|3-0-3--0|
G|------------|------------|-----------------|----2---2--0-----|------------|-------|--------|
D|------------|------------|-----------------|-----------------|------------|-------|--------|
A|------------|------------|-----------------|-----------------|------------|-------|--------|
E|------------|------------|-----------------|-----------------|------------|-------|--------|
   "Run, run, | lost boy," | they say to me, | (drag the 'me') | "Away from | all of| reality."

e|---------------|---------------------|-----------------------|-----------0---------|----|
B|0---0----------|-0-3--3----0--3------|--0----3---3----3------|0----3---------0-----|----|
G|--2-----2---0--|-------------------0-|---------------------0-|------------------2--|-0--| x2 (repeat from
D|---------------|---------------------|-----------------------|---------------------|----|     neverland)
A|---------------|---------------------|-----------------------|---------------------|----|
E|---------------|---------------------|-----------------------|---------------------|----|
 (drag 'reality')|Neverland is home to | lost boys like me And |lost boys like me are|free

[Bridge]
e|-----------------------|--------0-------|------------------------------|--------------------|
B|-0---0----0------0-----|-0-3-------0----|-0-----0------0---------------|--0-------0---------|
G|--2----------2---------|----------------|---2-----2---------2---0---2--|----2-------2---0---|
D|-----------------------|----------------|------------------------------|--------------------|
A|-----------------------|----------------|------------------------------|--------------------|
E|-----------------------|----------------|------------------------------|--------------------|
 Peter Pan, Tinker Bell, | Wendy Darling, | Even Captain Hook you are my | perfect story book

e|--------------------------|--------------------------------|-----------------------|-----|
B|-0----0------0---------0--|--0------0-------0---------0----|-0---------------------|-----|
G|---2-------2-------2------|-----2-------2---------2-----0--|----2----0---2---0-----|--0--|
D|--------------------------|--------------------------------|---------------------4-|-----|
A|--------------------------|--------------------------------|-----------------------|-----|
E|--------------------------|--------------------------------|-----------------------|-----|
  Neverland, I love you so, | You are now my home sweet home | Forever a lost boy at | last|

e|-----------------------|--------0-------|------------------------------|--------------------|
B|-0---0----0------0-----|-0-3-------0----|-0-----0------0---------------|--0-------0---------|
G|--2----------2---------|----------------|---2-----2---------2---0---2--|----2-------2---0---|
D|-----------------------|----------------|------------------------------|--------------------|
A|-----------------------|----------------|------------------------------|--------------------|
E|-----------------------|----------------|------------------------------|--------------------|
 Peter Pan, Tinker Bell, | Wendy Darling, | Even Captain Hook you are my | perfect story book

e|--------------------------|--------------------------------|-----------------------|-----|
B|-0----0------0---------0--|--0------0-------0---------0----|-0---------------------|-----|
G|---2-------2-------2------|-----2-------2---------2-----0--|----2----0---2---0-----|--0--|
D|--------------------------|--------------------------------|---------------------4-|-----|
A|--------------------------|--------------------------------|-----------------------|-----|
E|--------------------------|--------------------------------|-----------------------|-----|
  Neverland, I love you so, | You are now my home sweet home | Forever a lost boy at | last|

e|--------|--------|--3---5-|---5----|
B|--------|--0---3-|--------|--------|
G|--0-0-0-|--------|--------|--------|
D|--------|--------|--------|--------|
A|--------|--------|--------|--------|
E|--------|--------|--------|--------|
  And for | always | I will | say...

[Chorus]
e|----------------|-----------------|--------------------------|--------------|
B|0---0---3-------|---0-----3---0---|-1-0----1---0----1--------|-0-3-0--------|
G|--2---------0---|0------2---------|----------------------0---|--------2-----|
D|----------------|-----------------|--------------------------|--------------|
A|----------------|-----------------|--------------------------|--------------|
E|----------------|-----------------|--------------------------|--------------|
  I am a lost boy |  from Neverland | Usually hanging out with | Peter Pan

e|--------------------------|--0----------------|------------------------|-------------|
B|---0--------0----3-----3--|-------3--0-----0--|-1--0---1---0--1--------|--0-3-----0--|
G|0------2------------------|-------------2-----|--------------------0---|-------------|
D|--------------------------|-------------------|------------------------|-------------|
A|--------------------------|-------------------|------------------------|-------------|
E|--------------------------|-------------------|------------------------|-------------|
    And when we're bored we | play in the woods | Always on the run from | Captain Hook
 
e|--3-----2---|--0---------|----------0------|-----------------|---3----2---|0------|-----0--|
B|------------|-------3----|-3--0--3-----0---|-(0)--0----------|------------|-----3-|3-0-3--0|
G|------------|------------|-----------------|----2---2--0-----|------------|-------|--------|
D|------------|------------|-----------------|-----------------|------------|-------|--------|
A|------------|------------|-----------------|-----------------|------------|-------|--------|
E|------------|------------|-----------------|-----------------|------------|-------|--------|
   "Run, run, | lost boy," | they say to me, | (drag the 'me') | "Away from | all of| reality."

e|---------------|---------------------|-----------------------|-----------0---------|----|
B|0---0----------|-0-3--3----0--3------|--0----3---3----3------|0----3---------0-----|----|
G|--2-----2---0--|-------------------0-|---------------------0-|------------------2--|-0--| x2 (repeat from
D|---------------|---------------------|-----------------------|---------------------|----|     neverland)
A|---------------|---------------------|-----------------------|---------------------|----|
E|---------------|---------------------|-----------------------|---------------------|----|
 (drag 'reality')|Neverland is home to | lost boys like me And |lost boys like me are|free


*************************************

| (n)  Ghost note

*************************************
Suggest correction
Give kudos to tab author, rate the tab!
1 2 3 4 5
comments
print report bad tab
guest
You may want to rate the tab now too:
select rating
Wanna post a correction for this tab? Suggest correction