Oops, an error
Loading. Please wait.

Uptight Tab

229 views 1 this week
1 commentread comment
1 2 3 4 5
2 more votes to show rating
add to favorites
launch autoscroll
font size
0
reset
how to read this tab
guitar tuner
Autoscroll
slow
fast
+/-
esc
set tempo
stop
Help us to improve Ultimate-Guitar.com Take our survey!
×
This is a very obscure band, one which you dont have any tabs for so far,
they dont have a webpag as far as i know but i can give youa little info

the record label is Venture entertainment, the album name is laughing gallery,
as far as i now, the only album, it was released in 1995 and the band consists of:

Chris kennedy (vocals, bass) 
Mike Lustig (guitar)
Dave Snyder (drums)

cant really give you alot more info but im sure if you did a search
on the net youd find some infomation, cheers.


Artist  Ruth Ruth
Song    Uptight
Album   Laughing Gallery


This is a very obscure song that I came across one day on a bargin rack
I think its great and if youve looked for the tab you must do aswell.

This is my first attempt at tabbing so take what you see with a pinch of salt,
im fairly confident that ive made a good job of it but any feedback would be nice, cheers.



Verse

Been uptight for all my life..
e ------------------------------------------------------------
b ------------------------------------------------------------
g ----------------------------7-7-6/7-7-77-7-777--------------
d ----------------------------5-5-6/7-7-77-7-777--------------
a ----------------------------5-5-4/5-5-55-5-555--------------
E ------------------------------------------------------------

Been uptight im real uptight..
e ------------------------------------------------------------
b ------------------------------------------------------------
g ----------------------------7-7-6/7-7-77-7-777--------------
d ----------------------------5-5-6/7-7-77-7-777--------------
a ----------------------------5-5-4/5-5-55-5-555--------------
E ------------------------------------------------------------


just repeat the whole thing for the verses, you get the idea.


Chorus

Get me the hell out of here, im running out of control
e -------------------------------------------
b -------------------------------------------
g -------------------------------------------
d --2-2-222--4-4-44444-7-7-777-9-9-9999------
a --2-2-000--4-4-22222-5-5-555-9-9-9999------
E --0-0-000--2-2-22222-5-5-555-7-7-7777------

Im uptight, im not thinking clear and im ready now to blow
e -------------------------------------------
b -------------------------------------------
g -------------------------------------------
d --2-2-222--4-4-44444-7-7-777-9-9-9999------
a --2-2-000--4-4-22222-5-5-555-9-9-9999------
E --0-0-000--2-2-22222-5-5-555-7-7-7777------

Tell me that im alright, tell me im for real
e -------------------------------------------
b -------------------------------------------
g -------------------------------------------
d --2-2-222--4-4-44444-7-7-777-9-9-9999------
a --2-2-000--4-4-22222-5-5-555-9-9-9999------
E --0-0-000--2-2-22222-5-5-555-7-7-7777------

Im a fucking labrotory rat, and every breath I feel
e -------------------------------------------
b -------------------------------------------
g -------------------------------------------
d --2-2-222--4-4-44444-7-7-777-9-9-9999------
a --2-2-000--4-4-22222-5-5-555-9-9-9999------
E --0-0-000--2-2-22222-5-5-555-7-7-7777------

    Uptight      Uptight   oh yeahhhhhhh
e -------------------------------------------------
b -------------------------------------------------
g ---10----------12--------------------------------
d ---10-10-------12-12------12-9999999999999999----
a ---8--10-------10-12------12-9999999999999999----
E ------8-----------10------10-7999999999999999----


Then everything moves up one step


Verse

Been uptight for all my life..
e ------------------------------------------------------------
b ------------------------------------------------------------
g ----------------------------8-8-7/8-8-88-8-888--------------
d ----------------------------6-6-7/8-8-88-8-888--------------
a ----------------------------6-6-5/6-6-66-6-666--------------
E ------------------------------------------------------------

Been uptight im real uptight..
e ------------------------------------------------------------
b ------------------------------------------------------------
g ----------------------------8-8-7/8-8-88-8-888--------------
d ----------------------------6-6-7/8-8-88-8-888--------------
a ----------------------------6-6-5/6-6-66-6-666--------------
E ------------------------------------------------------------


just repeat the whole thing for the verses again.


Chorus

Get me the hell out of here, im running out of control
e -------------------------------------------
b -------------------------------------------
g -------------------------------------------
d --3-3-333--5-5-55555-8-8-888-9-9-10101010--
a --3-3-111--5-5-33333-6-6-666-9-9-10101010--
E --1-1-111--3-3-33333-6-6-666-8-8-8 8 8 8---

Im uptight, im not thinking clear and im ready now to blow
e -------------------------------------------
b -------------------------------------------
g -------------------------------------------
d --3-3-333--5-5-55555-8-8-888-9-9-10101010--
a --3-3-111--5-5-33333-6-6-666-9-9-10101010--
E --1-1-111--3-3-33333-6-6-666-8-8-8 8 8 8---

Tell me that im alright, tell me im for real
e -------------------------------------------
b -------------------------------------------
g -------------------------------------------
d --3-3-333--5-5-55555-8-8-888-9-9-10101010--
a --3-3-111--5-5-33333-6-6-666-9-9-10101010--
E --1-1-111--3-3-33333-6-6-666-8-8-8 8 8 8---

Im a fucking labrotory rat, and every breath I feel
e -------------------------------------------
b -------------------------------------------
g -------------------------------------------
d --3-3-333--5-5-55555-8-8-888-9-9-10101010--
a --3-3-111--5-5-33333-6-6-666-9-9-10101010--
E --1-1-111--3-3-33333-6-6-666-8-8-8 8 8 8---

    Uptight      Uptight   oh yeahhhhhhh
e --------------------------------------------------------------------------------
b --------------------------------------------------------------------------------
g ---11----------13---------------------------------------------------------------
d ---11-11-------13-13------13-10 10 10 10 10 10 10 10 10 10 10 10 10 10 10 10----
a ---9--11-------11-13------13-10 10 10 10 10 10 10 10 10 10 10 10 10 10 10 10----
E ------9-----------11------11-8  8  8  8  8  8  8  8  8  8  8  8  8  8  8  8 ----


Bridge

e ---------------------
b ---------------------
g ---------------------
d --------3------------
a ----1-3---3----------
e --1---------6-5-3----

Ive been uptight for all my life
e -------------------------------------
b -------------------------------------
g -------------------33333333----------
d -33333333-55555555-33333333----------
a -33333333-55555555-11111111-0--------
e -11111111-33333333------------3------
   ----------Palm Muted------

None of you get it do you? etc.
e -------------------------------------
b -------------------------------------
g -------------------33333333----------
d -33333333-55555555-33333333----------
a -33333333-55555555-11111111-0--------
e -11111111-33333333------------3------
   ----------Palm Muted------

None of you have a clue
e -------------------------------------
b -------------------------------------
g -------------------33333333----------
d -33333333-55555555-33333333----------
a -33333333-55555555-11111111-0--------
e -11111111-33333333------------3------
   ----------Palm Muted------

I cant even leave my room
e -------------------------------------
b -------------------------------------
g -------------------33333333----------
d -33333333-55555555-33333333----------
a -33333333-55555555-11111111-0--------
e -11111111-33333333------------3------
   ----------Palm Muted------

And when i wake up, i hide beneath my bed
e -------------------------------------
b -------------------------------------
g -------------------33333333----------
d -33333333-55555555-33333333----------
a -33333333-55555555-11111111-0--------
e -11111111-33333333------------3------
   ----------Palm Muted------


I dont even eat, BUT I KEEP GETTING FATTER
e ----------------------------------------
b ----------------------------------------
g -------------------33333333-55555555----
d -33333333-55555555-33333333-55555555----
a -33333333-55555555-11111111-33333333----
e -11111111-33333333----------------------
   ----------Palm Muted------

Repeat verse and go right into the chorus then your finished

e -------------------------------------------
b -------------------------------------------
g -----------7-7-6/7-7-77-7-777--------------
d -----------5-5-6/7-7-77-7-777--------------
a -----------5-5-4/5-5-55-5-555--------------
E -------------------------------------------


that was fun, I hope someone finds this usefull,
please let me know how i did, cheers.

Danny
Suggest correction
Give kudos to tab author, rate the tab!
1 2 3 4 5
comments
print report bad tab
1 comment total.
0 reply
Americanidiot88 10 Oct 14, 2006 10:57 AM

This is a really good song. I dont see why more people tab this band.

guest
You may want to rate the tab now too:
select rating
Wanna post a correction for this tab? Suggest correction