Oops, an error
Loading. Please wait.

The Tide chords

by RVIVR
61 views 1 this week
no commentswrite comment
1 2 3 4 5
3 more votes to show rating
add to favorites
×
Save as Personal and add changes to this tab that will be seen only by you. Learn more ›
×
You can save this tab as Personal to edit and correct it or add notes. All changes will be seen only by you. Learn more »
launch autoscroll
font size
0
reset
transpose
0
reset
simplify chords
display chords
guitar tuner
edit
Autoscroll
slow
fast
+/-
esc
set tempo
stop
Strumming
There is no strumming pattern for this song yet. and get +5 IQ
RVIVR
"The Tide"

[Intro]
   G                                    D
e|-----------------|-----------------|-------------------|---------------------|
B|-8-8-7-7-5-5-3-3-|-8-8-7-7-5-5-3-5-|-(5)-3---3---3-3-5-|-(5)-3---3-(3)-------|
G|-0-0-0-0-0-0-0-0-|-0-0-0-0-0-0-0-0-|-------4-----------|-------4-0-(0)-------|
D|-----------------|-----------------|-------------------|---------------------|
A|-----------------|-----------------|-------------------|---------------------|
E|-----------------|-----------------|-------------------|---------------------|

   Em                                   C
e|-----------------|-----------------|-------------------|---------------------|
B|-8-8-7-7-5-5-3-3-|-8-8-7-7-5-5-3-5-|-(5)-3---3---------|---------------------|
G|-0-0-0-0-0-0-0-0-|-0-0-0-0-0-0-0-0-|-------4-----4-2-2-|-(2)-4-2-0-(0)-------|
D|-----------------|-----------------|-------------------|---------------------|
A|-----------------|-----------------|-------------------|---------------------|
E|-----------------|-----------------|-------------------|---------------------|

[Verse]
  G                         D
I pulled against the tide a solitary mind
            Em
There was a big bright moon
                      C
I was out of tune and time
G
Panic on the radio
D
Running with no where to go
Em                                  C
Can't think in a language you don't know
Em                G   D  C
So keep breathing

[Riff]
   G                                    D
e|-----------------|-----------------|-------------------|---------------------|
B|-8-8-7-7-5-5-3-3-|-8-8-7-7-5-5-3-5-|-(5)-3---3---3-3-5-|-(5)-3---3-(3)-------|
G|-0-0-0-0-0-0-0-0-|-0-0-0-0-0-0-0-0-|-------4-----------|-------4-0-(0)-------|
D|-----------------|-----------------|-------------------|---------------------|
A|-----------------|-----------------|-------------------|---------------------|
E|-----------------|-----------------|-------------------|---------------------|

   Em                                   C
e|-----------------|-----------------|-------------------|---------------------|
B|-8-8-7-7-5-5-3-3-|-8-8-7-7-5-5-3-5-|-(5)-3---3---------|---------------------|
G|-0-0-0-0-0-0-0-0-|-0-0-0-0-0-0-0-0-|-------4-----4-2-2-|-(2)-4-2-0-(0)-------|
D|-----------------|-----------------|-------------------|---------------------|
A|-----------------|-----------------|-------------------|---------------------|
E|-----------------|-----------------|-------------------|---------------------|

[Verse 2]
G
Stood up in the light
          D
A fucking animal inside
           Em                                  C
I've never been the kind of loon that tries to hide
G                              D
All the ways we try to shrink away from all the shit that stinks
    Em
And I can't think
                          D
And I thought you were my friend (Shuttin' up again)

[Chorus]
G
Watch what you say so you don't say nothing
D
Choking on your words like the cops are coming
       C                  D
And ya feel so small like nothing at all
Em                         G
Since the last time saw me fall
                        D
I don't say anything at all
                        Cadd9
I don't say anything at all
          Cadd9
No not at all, but I say

[Solo]
   G                                                   D
e|------------------------|-------------------------|------------------------|------------------------|
B|------------------------|-------------------------|------------------------|------------------------|
G|-14b16--14b16---14b16---|-14b16----14b16r14-12-14-|-(14)----14b16r14-12----|---------14b16r14-12----|
D|------------------------|-------------------------|---------------------14-|-(14)----------------12-|
A|------------------------|-------------------------|------------------------|------------------------|
E|------------------------|-------------------------|------------------------|------------------------|

   Em
e|---------------------------|----------------------------|
B|------------------15----17-|-15----15-------------------|
G|---------12-14/16----16----|----16----16-14h16-16-14b16-|
D|-(12)-14-------------------|----------------------------|
A|---------------------------|----------------------------|
E|---------------------------|----------------------------|

   C
e|---------------------------------|-----------------------------|
B|---------------------------------|-----------------------------|
G|-(14)-14b16--14b16--14b16--14b16-|-(14)-14b16-14-------12-/16--|
D|---------------------------------|---------------12h14---------|
A|---------------------------------|-----------------------------|
E|---------------------------------|-----------------------------|

   G                                                     D
e|---------------------------|-------------------------|---------------------------|------------------------|
B|------15----15----15----17-|----17----15----15-------|---------------------------|------------------------|
G|-(16)----16----16----16----|-16----16----16----16-14-|-(14)b16r=14-12-----14b16r=|=14-12-----14b16r=14-12-|
D|---------------------------|-------------------------|----------------14---------|-------12---------------|
A|---------------------------|-------------------------|---------------------------|------------------------|
E|---------------------------|-------------------------|---------------------------|------------------------|

   Em
e|-------------------------------------------------|--------------------------------------------|
B|-------------------------------------------------|--------------------------------------------|
G|-------------------------12-12-12-12-14-14-14-14-|-16-16-16-16-14-14-14-14-12-12-12-12-14-12--|
D|-12-12-12-12-14-14-14-14-------------------------|--------------------------------------------|
A|-------------------------------------------------|--------------------------------------------|
E|-------------------------------------------------|--------------------------------------------|

   C
e|---------------------------|---------------------------|
B|---------------------------|---------------------------|
G|-(12)----12----12-14-12----|-12-14-12----14b16--14b16--|
D|------14----14----------14-|----------14---------------|
A|---------------------------|---------------------------|
E|---------------------------|---------------------------|

[Bridge]
Em       G     D    C
Keep breathing
Em       G     D    C
Keep breathing
Em       G     D                       C
Keep breathing covered in the dirt and fear
        Cadd9
Let the waves wash away all the skin off this year (Cuz here it comes again)

[Chorus]
G
Watch what you say so you don't say nothing
D
Choking on your words like the cops are coming
       C                  D
And ya feel so small like nothing at all
Em                         G
Since the last time saw me fall
                        D
I don't say anything at all
                        Cadd9
I don't say anything at all
          Cadd9
No not at all, but I say

[Outro]
G  D  Em  Cadd9

            
            
Suggest correction
Creating personal tab
Creating personal tab
You can edit any tab online and save it as your Personal.

You can edit, replace or remove any tab part or add personal notes – all changes will be seen only by you.

Personal tabs can be accessed anytime from any device, even offline.
Learn more »
Give kudos to tab author, rate the tab!
1 2 3 4 5
comments
print report bad tab
guest
You may want to rate the tab now too:
select rating
Wanna post a correction for this tab? Suggest correction