Oops, an error
Loading. Please wait.

Never Slept So Soundly tab

version 1
version 1

Whole song

Interactive

5,053 views 6 this week
1 commentread comment
1 2 3 4 5
x 3
add to favorites
×
Save as Personal and add changes to this tab that will be seen only by you. Learn more ›
×
You can save this tab as Personal to edit and correct it or add notes. All changes will be seen only by you. Learn more »
launch autoscroll
font size
0
reset
how to read this tab
guitar tuner
edit
Autoscroll
slow
fast
+/-
esc
set tempo
stop
Author
Difficulty
*****************************************
* Song   : Never Slept So Soundly       *
* Artist : Rx Bandits                   *
* Album  : The Resignation              *
* Year   : 2003                         *
*****************************************
    Tabbed by: Bill Streckfus

Tempo = 174 bpm

Intro:
------------------------------------------------------------------------------

Guitar 1 (delay):

These muted notes are played way down the bridge, the closer you can get to the
start of the strings the better.

           C#m                Cmb5               G#m
E|------------------|------------------|------------------|------------------|
B|---------x--------|------------------|---------------x--|------------------|
G|---------x--------|------------------|---------------x--|------------------|
D|---------x--------|------------------|---------------x--|------------------|
A|------------------|------------------|------------------|------------------|
E|------------------|------------------|------------------|------------------|

           C#m                Cmb5               G#m
E|------------------|------------------|------------------|------------------|
B|------------------|---x---x----------|------------------|------------------|
G|------------------|---x---x----------|------------------|------------------|
D|------------------|------------------|------------------|------------------|
A|------------------|------------------|------------------|------------------|
E|------------------|------------------|------------------|------------------|

           C#m                Cmb5               G#m
E|------------------|------------------|------------------|------------------|
B|------------------|-----x------------|-----x------------|-----x------------|
G|------------------|-----x------------|-----x------------|-----x------------|
D|------------------|-----x------------|-----x------------|-----x------------|
A|------------------|------------------|------------------|------------------|
E|------------------|------------------|------------------|------------------|

           C#m                Cmb5               G#m        C#m
E|------------------|------------------|------------------|------------------|
B|------------------|-------------5----|---5--------------|-x-4--------------|
G|------------------|------------------|------------------|------------------|
D|------------------|------------------|------------------|------------------|
A|------------------|------------------|------------------|------------------|
E|------------------|------------------|------------------|------------------|
                                 p.m.     p.m.               p.m.
  
   C#m                Cmb5               G#m
E|------------------|------------------|------------------|------------------|
B|------------------|------------------|------------------|-x----------------|
G|------------------|------------------|------------------|-x----------------|
D|------------------|------------------|------------------|-x----------------|
A|------------------|------------------|------------------|------------------|
E|------------------|------------------|------------------|------------------|

   C#m                Cmb5               G#m
E|------------------|------------------|------------------|------------------|
B|-x-----x----------|------------------|------------------|------------------|
G|-x-----x----------|------------------|------------------|------------------|
D|-x-----x----------|------------------|------------------|------------------|
A|------------------|------------------|------------------|------------------|
E|------------------|------------------|------------------|------------------|

   C#m                Cmb5               G#m
E|------------------|------------------|---------4-4-4-4--|------------------|
B|------------------|-5-5-4------------|------------------|-5-5-4------------|
G|---------------6--|-------6----------|------------------|-------6----------|
D|------------------|------------------|------------------|------------------|
A|------------------|------------------|------------------|------------------|
E|------------------|------------------|------------------|------------------|
                 p.m.p.m.p.m.                   p.m.p.m.p.m.p.m.p.m.

   C#m                Cmb5               G#m
E|------------------|------------------|------------------|------------------|
B|------------------|-5-5-4------------|------------------|-5-5-4------------|
G|-x-6-8------------|-------6----------|---------6-6-6-6--|-------6----------|
D|-------6----------|------------------|------------------|------------------|
A|------------------|------------------|------------------|------------------|
E|------------------|------------------|------------------|------------------|
   p.m.p.m.           p.m.p.m.                  p.m.p.m.p.m.p.m.p.m.

   C#m                Cmb5               G#m
E|------------------|------------------|---2---2-2/4------|------------------|
B|------------------|-5-5-4------------|------------------|-5-5-4------------|
G|-x-6-8------------|-------6----------|------------------|-------6----------|
D|-------6---6-6-6--|------------------|------------------|---------------7--|
A|------------------|------------------|------------------|------------------|
E|------------------|------------------|------------------|------------------|
   p.m.p.m.p.m.p.m.p.m.p.m.p.m.           p.m.p.m.p.m.      p.m.p.m.    p.m.

   C#m                Cmb5               G#m
E|------------------|------------------|------------------|
B|------------------|-5-5-4------------|------------------|
G|-x-6-8------------|-------6----------|------------------|
D|-------6----------|------------------|------------------|
A|------------------|------------------|------------------|
E|------------------|------------------|------------------|
   p.m.p.m.           p.m.p.m.

Verse:
------------------------------------------------------------------------------

Guitar 1 (delay):

   F#m7               G#m7               C#m7
E|------------------|------------------|------------------|------------------|
B|------------------|------------------|-----4-5----------|------------------|
G|------------------|-----3-4----------|-x-6--------------|-x-6-8------------|
D|-x-4-6-6----------|-x-6--------------|---------------6--|-------6----------|
A|------------------|------------------|------------------|------------------|
E|------------------|------------------|------------------|---------------2--|
   p.m.               p.m.p.m.           p.m.p.m.      p.m.p.m.p.m.      p.m.

   F#m7               G#m7               C#m7
E|------------------|------------------|------------------|------------------|
B|------------------|------------------|-----4------------|-----5-4----------|
G|------------------|-----3-4----------|-x-6---6----------|------------------|
D|---4-6---------6--|-x-6-----------6--|------------------|-x-6--------------|
A|------------------|------------------|---------------4--|------------------|
E|-4----------------|------------------|------------------|---------------2--|
  p.m.p.m.       p.m.p.m.p.m.       p.m.p.m.p.m.       p.m.p.m.      p.m.

   F#m7               G#m7               C#m7
E|------------------|------------------|------------------|------------------|
B|------------------|------------------|------------------|-----5------------|
G|------------------|-----3-4----------|---4-6------------|------------------|
D|---4-6---------6--|-x-6--------------|-x----------------|-x-6--------------|
A|------------------|---------------2--|---------------4--|------------------|
E|-4----------------|------------------|------------------|---------------2--|
  p.m.p.m.       p.m.p.m.p.m.       p.m.p.m.p.m.       p.m.p.m.          p.m.

   F#m7               G#m7        F#m                G#m                C#m
E|------------------|-------------2----|-----2-------4----|-----4-xxx-x-0----|
B|------------------|-------------2----|-----2-------4----|-----4-xxx-x-2----|
G|------------------|-----3-4-----2----|-----2-------4----|-----4-xxx-x-1----|
D|---4-6------------|-x-6--------------|------------------|------------------|
A|---------------2--|------------------|------------------|------------------|
E|-4----------------|------------------|------------------|------------------|
  p.m.p.m.       p.m.p.m.p.m.  (clean)
 
   C#m                            F#m                G#m                C#m
E|-----0-------0----|-----0-------2----|-----2-------4----|-----4-------4----|
B|-----2-------2----|-----2-------2----|-----2-------4----|-----4-------5----|
G|-----1-------1----|-----1-------2----|-----2-------4----|-----4-------6----|
D|------------------|------------------|------------------|------------------|
A|------------------|------------------|------------------|------------------|
E|------------------|------------------|------------------|------------------|

   C#m                            F#m                G#m                B
E|-----4-4-----4-4--|-----4-4-----2----|-----2-------4----|-----4------------|
B|-----5-4-----4-5--|-----7-4-----2----|-----2-------4----|-----4-------4----|
G|-----6-6-----6-6--|-----6-6-----2----|-----2-------4----|-----4---x-x-4----|
D|------------------|------------------|------------------|---------x-x-4----|
A|------------------|------------------|------------------|---------x-x-2----|
E|------------------|------------------|------------------|------------------|

   B           C#m                F#m                              G#5
E|-------------2-0--|-----0-------2----|-----2-------2----|-----2-0----------|
B|-----4-------2-2--|-----2-------2----|-----2-------2----|-----2-2----------|
G|-----4-------1-1--|-----1-------2----|-----2-------2----|-----2-213----13--|
D|-----4------------|------------------|------------------|--------13----13--|
A|-----2------------|------------------|------------------|--------11----11--|
E|------------------|------------------|------------------|------------------|
                                                                 (distortion)
      A5        B5
E|------------------|----------|
B|------------------|----------|
G|----14----14--16--|----1616--|
D|----14----14--16--|----1616--|
A|----12----12--14--|----1414--|
E|------------------|----------|

Chorus:
------------------------------------------------------------------------------

Guitar 1 (distorted):

   E5
E|------------------|------------------|------------------|------------------|
B|------------------|------------------|------------------|------------------|
G|-9-9-9-9-9-9-9-9--|-9-9-9-9-9-9-9-9--|-9-9-9-911111313--|1414141413131313--|
D|-9-9-9-9-9-9-9-9--|-9-9-9-9-9-9-9-9--|-9-9-9-9----------|------------------|
A|-7-7-7-7-7-7-7-7--|-7-7-7-7-7-7-7-7--|-7-7-7-7-9-91111--|1212121211111111--|
E|------------------|------------------|------------------|------------------|

   C#m9                                  A9      A5         AM7     A5  AM7
E|------------------|-----4-4----------|------------------|------------------|
B|---------4-4-5-5--|---------4-4-5-0--|------------------|------------------|
G|---------2-2------|-6-6--------------|-4-4---4-2-2---2--|-1-1---1-2-2-1-1--|
D|-----6-6----------|------------------|-2-2---2-2-2---2--|-2-2---2-2-2-2-2--|
A|-4-4--------------|------------------|-0-0---0-0-0---0--|-0-0---0-0-0-0-0--|
E|------------------|------------------|------------------|------------------|

   E5
E|------------------|------------------|------------------|------------------|
B|------------------|------------------|------------------|------------------|
G|-9-9-9-9-9-9-9-9--|-9-9-9-9-9-9-9-9--|1111111111313313--|11-9-9-9-8-8-9-9--|
D|-9-9-9-9-9-9-9-9--|-9-9-9-9-9-9-9-9--|------------------|------------------|
A|-7-7-7-7-7-7-7-7--|-7-7-7-7-7-7-7-7--|-9-9-9-9-1111212--|-9-7-7-7-6-6-7-7--|
E|------------------|------------------|------------------|------------------|

   C#m9                                  A9      A5         AM7     A5  
E|------------------|-----4------------|------------------|------------------|
B|---------4-4-5-5--|---------4-4-5-0--|------------------|------------------|
G|------------------|-6-6---6----------|-4-4---4-2-2---2--|-1-1---1-2-2------|
D|-----6-6----------|------------------|-2-2---2-2-2---2--|-2-2---2-2-2------|
A|-4-4--------------|------------------|-0-0---0-0-0---0--|-0-0---0-0-0------|
E|------------------|------------------|------------------|------------------|

Guitar 1 (clean):

   C#m7               G#m7               F#m7
E|-4----------------|-4----------------|-2----------------|------------------|
B|-5----------------|-4----------------|-2----------------|------------------|
G|-4----------------|-4----------------|-2----------------|------------------|
D|-6----------------|-4----------------|-2----------------|------------------|
A|-4----------------|-x----------------|-x----------------|------------------|
E|------------------|-4----------------|-2----------------|------------------|

Guitar 2 (distorted):

   E5
E|------------------|------------------|------------------|------------------|
B|------------------|------------------|------------------|------------------|
G|-9-9-9-9-9-9-9-9--|-9-9-9-9-9-9-9-9--|-9-9-9-9-9-9-9-9--|-9-9-9-9-9-9-9-9--|
D|-9-9-9-9-9-9-9-9--|-9-9-9-9-9-9-9-9--|-9-9-9-9-9-9-9-9--|-9-9-9-9-9-9-9-9--|
A|-7-7-7-7-7-7-7-7--|-7-7-7-7-7-7-7-7--|-7-7-7-7-7-7-7-7--|-7-7-7-7-7-7-7-7--|
E|------------------|------------------|------------------|------------------|

   C#m9                                  A9      A5         AM7     A5  AM7
E|---------2-2-4-4--|-----7-7-2-2-4----|------------------|------------------|
B|-----5-5----------|---------------0--|------------------|------------------|
G|-6-6--------------|-6-6--------------|-4-4---4-2-2---2--|-1-1---1-2-2-1-1--|
D|------------------|------------------|-2-2---2-2-2---2--|-2-2---2-2-2-2-2--|
A|------------------|------------------|-0-0---0-0-0---0--|-0-0---0-0-0-0-0--|
E|------------------|------------------|------------------|------------------|

   E5
E|------------------|------------------|------------------|------------------|
B|------------------|------------------|------------------|------------------|
G|-9-9-9-9-9-9-9-9--|-9-9-9-9-9-9-9-9--|-9-9-9-9-9-9-9-9--|-9-9-9-9-9-9-9-9--|
D|-9-9-9-9-9-9-9-9--|-9-9-9-9-9-9-9-9--|-9-9-9-9-9-9-9-9--|-9-9-9-9-9-9-9-9--|
A|-7-7-7-7-7-7-7-7--|-7-7-7-7-7-7-7-7--|-7-7-7-7-7-7-7-7--|-7-7-7-7-7-7-7-7--|
E|------------------|------------------|------------------|------------------|

   C#m9                                  A9      A5         AM7     A5 
E|---------2-2-4-4--|-----7-7-2-2-4----|------------------|------------------|
B|-----5-5----------|---------------0--|------------------|------------------|
G|-6-6--------------|-6-6--------------|-4-4---4-2-2---2--|-1-1---1-2-2------|
D|------------------|------------------|-2-2---2-2-2---2--|-2-2---2-2-2------|
A|------------------|------------------|-0-0---0-0-0---0--|-0-0---0-0-0------|
E|------------------|------------------|------------------|------------------|

Guitar 2 (light distortion):

   C#m7               G#m7               F#m7
E|------------------|------------------|------------------|------------------|
B|------------------|------------------|------------------|------------------|
G|16----------------|11---------------/|16----------------|------------------|
D|------------------|------------------|------------------|------------------|
A|14----------------|-9---------------/|14----------------|------------------|
E|------------------|------------------|------------------|------------------|

Verse 2:
------------------------------------------------------------------------------

Guitar 1 (clean):

       F#m                G#m                C#m
E|-----2-------2----|-----4-------4----|-----4-------4----|-----4-4-----4----|
B|-----2-------2----|-----4-------4----|-----5-------5----|-----5-4-----5----|
G|-----2-------2----|-----4-------4----|-----6-------6----|-----6-6-----6----|
D|------------------|------------------|------------------|------------------|
A|------------------|------------------|------------------|------------------|
E|------------------|------------------|------------------|------------------|

       F#m                G#m                C#m
E|-----2-------2----|-----4-------4----|-----0-------0----|-----0-------0----|
B|-----2-------2----|-----4-------4----|-----2-------2----|-----2-------2----|
G|-----2-------2----|-----4-------4----|-----1-------1----|-----1-------1----|
D|------------------|------------------|------------------|------------------|
A|------------------|------------------|------------------|------------------|
E|------------------|------------------|------------------|------------------|

       F#m                G#m                B                  C#m
E|-----2-------2----|-----4-------4----|------------------|-----4-------4----|
B|-----2-------2----|-----4-------4----|-----4-------4----|-----5-------5----|
G|-----2-------2----|-----4-------4----|-----4-------4----|-----6-------6----|
D|------------------|------------------|-----4-------4----|------------------|
A|------------------|------------------|------------------|------------------|
E|------------------|------------------|------------------|------------------|

       F#m                               G#5        A5             B5
E|-------------2----|-----2-------2----|------------------|------------------|
B|-----2-------2----|-----2-------2----|------------------|------------------|
G|-----2-------2----|-----2-------2----|13----13----14----|--14----16--1616--|
D|-----4-------4----|-----4-------4----|13----13----14----|--14----16--1616--|
A|------------------|------------------|11----11----12----|--12----14--1414--|
E|------------------|------------------|------------------|------------------|
                                        (distortion)


Chorus 2:
------------------------------------------------------------------------------

Guitar 1 (distorted):

   E5
E|------------------|------------------|------------------|------------------|
B|------------------|------------------|------------------|------------------|
G|-9-9-9-9-9-9-9-9--|-9-9-9-9-9-9-9-9--|-91111-911111313--|11-9-9-9-8-8-8-8--|
D|-9-9-9-9-9-9-9-9--|-9-9-9-9-9-9-9-9--|------------------|------------------|
A|-7-7-7-7-7-7-7-7--|-7-7-7-7-7-7-7-7--|-7-9-9-7-9-91111--|-9-7-7-7-6-6-6-6--|
E|------------------|------------------|------------------|------------------|

   C#m9                                  A9      A5         AM7     A5  AM7
E|------------------|-----4------------|------------------|------------------|
B|---------4-4-5-5--|---------4-4-5-0--|------------------|------------------|
G|------------------|-6-6---6----------|-4-4---4-2-2---2--|-1-1---1-2-2-1-1--|
D|-----6-6----------|------------------|-2-2---2-2-2---2--|-2-2---2-2-2-2-2--|
A|-4-4--------------|------------------|-0-0---0-0-0---0--|-0-0---0-0-0-0-0--|
E|------------------|------------------|------------------|------------------|

   E5
E|------------------|------------------|------------------|------------------|
B|------------------|------------------|------------------|------------------|
G|-9-9-9-9-9-9-9-9--|-9-9-9-9-9-9-9-9--|1313131311111414--|13111111-8-8-8-8--|
D|-9-9-9-9-9-9-9-9--|-9-9-9-9-9-9-9-9--|------------------|------------------|
A|-7-7-7-7-7-7-7-7--|-7-7-7-7-7-7-7-7--|11111111-9-91212--|11-9-9-9-6-6-6-6--|
E|------------------|------------------|------------------|------------------|

   C#m9                                  A9      A5         AM7     A5 
E|------------------|-----4------------|------------------|------------------|
B|---------4-4-5-5--|---------4-4-5-0--|------------------|------------------|
G|------------------|-6-6---6----------|-4-4---4-2-2---2--|-1-1---1-2-2-2-2--|
D|-----6-6----------|------------------|-2-2---2-2-2---2--|-2-2---2-2-2-2-2--|
A|-4-4--------------|------------------|-0-0---0-0-0---0--|-0-0---0-0-0-0-0--|
E|------------------|------------------|------------------|------------------|

Guitar 2 (distorted):

   E5
E|------------------|------------------|------------------|------------------|
B|------------------|------------------|------------------|------------------|
G|------------------|------------------|------------------|------------------|
D|------------------|------------------|------------------|------------------|
A|------------------|------------------|------------------|------------------|
E|------------------|------------------|------------------|------------------|

   C#m9                                  A9      A5         AM7     A5  AM7
E|---------2-2-4-4--|-----7-7-2-2-4----|------------------|------------------|
B|-4-5-5-5----------|---------------0--|------------------|------------------|
G|-6----------------|-6-6--------------|-4-4---4-2-2---2--|-1-1---1-2-2-1-1--|
D|------------------|------------------|-2-2---2-2-2---2--|-2-2---2-2-2-2-2--|
A|------------------|------------------|-0-0---0-0-0---0--|-0-0---0-0-0-0-0--|
E|------------------|------------------|------------------|------------------|

   E5
E|------------------|------------------|------------------|------------------|
B|------------------|------------------|------------------|------------------|
G|-9-9-9-9-9-9-9-9--|-9-9-9-9-9-9-9-9--|-9-9-9-9-9-9-9-9--|-9-9-9-9-9-9-9-9--|
D|-9-9-9-9-9-9-9-9--|-9-9-9-9-9-9-9-9--|-9-9-9-9-9-9-9-9--|-9-9-9-9-9-9-9-9--|
A|-7-7-7-7-7-7-7-7--|-7-7-7-7-7-7-7-7--|-7-7-7-7-7-7-7-7--|-7-7-7-7-7-7-7-7--|
E|------------------|------------------|------------------|------------------|

   C#m9                                  A9      A5         AM7     A5  
E|---------2-2-4-4--|-----7-7-2-2-4----|------------------|------------------|
B|-4---5-5----------|---------------0--|------------------|------------------|
G|---4--------------|-6-6--------------|-4-4---4-2-2---2--|-1-1---1-2-2-2-2--|
D|------------------|------------------|-2-2---2-2-2---2--|-2-2---2-2-2-2-2--|
A|------------------|------------------|-0-0---0-0-0---0--|-0-0---0-0-0-0-0--|
E|------------------|------------------|------------------|------------------|

Bridge:
------------------------------------------------------------------------------

Guitars 1 & 2 (distorted):

   G#
E|------------------|------------------|------------------|------------------|
B|------------------|------------------|------------------|------------------|
G|------------------|------------------|------------------|------------------|
D|-6-6-6-6-6-6-6-6--|-6-6-6-6-6-6-6-6--|-6-6-6-6-6-6-6-6--|-6-6-6-6-6--------|
A|-6-6-6-6-6-6-6-6--|-6-6-6-6-6-6-6-6--|-6-6-6-6-6-6-6-6--|-6-6-6-6-6--------|
E|-4-4-4-4-4-4-4-4--|-4-4-4-4-4-4-4-4--|-4-4-4-4-4-4-4-4--|-4-4-4-4-4--------|
   Gradually release palm mute

   C#m9                                F#5G#5  E5 E5F#5G#5    E5 E5F#5G#5B
E|------------------|------------------|------------------|------------------|
B|------------------|------------------|------------------|------------------|
G|-6---6-9-8--------|------------------|------------------|-------------4-4--|
D|-----------9-6-6--|---------x-x---x--|-4/6---2---2-4/6--|---2---2-4/6-4-4--|
A|-4---4-7-6--------|---------x-x---x--|-4/6---2---2-4/6--|---2---2-4/6-2-2--|
E|-----------7-4-4--|---------x-x---x--|-2/4---0---0-2/4--|---0---0-2/4------|

   C#m9                                F#5G#5  E5 E5F#5G#5    E5 E5F#5G#5B
E|------------------|------------------|------------------|------------------|
B|------------------|------------------|------------------|------------------|
G|-6-6-6-9-8--------|------------------|------------------|-------------4-4--|
D|-----------9-6-6--|-----x-------x----|-4/6---2---2-4/6--|---2---2-4/6-4-4--|
A|-4-4-4-7-6--------|-----x-------x----|-4/6---2---2-4/6--|---2---2-4/6-2-2--|
E|-----------7-4-4--|-----x-------x----|-2/4---0---0-2/4--|---0---0-2/4------|

   C#m9                                F#5G#5  E5 E5F#5G#5    E5 E5F#5G#5B
E|------------------|------------------|------------------|------------------|
B|------------------|------------------|------------------|------------------|
G|-6-6-6-9-8--------|------------------|------------------|-------------4-4--|
D|-----------9-6-6--|------------------|-4/6---2---2-4/6--|---2---2-4/6-4-4--|
A|-4-4-4-7-6--------|------------------|-4/6---2---2-4/6--|---2---2-4/6-2-2--|
E|-----------7-4-4--|------------------|-2/4---0---0-2/4--|---0---0-2/4------|

   C#m9                                F#5G#5  E5 E5F#5G#5    E5 E5F#5G#5B
E|------------------|------------------|------------------|------------------|
B|------------------|------------------|------------------|------------------|
G|-6-6-6-9-8--------|------------------|------------------|-------------4----|
D|-----------9-6-6--|------------------|-4/6---2---2-4/6--|---2---2-4/6-4----|
A|-4-4-4-7-6--------|------------------|-4/6---2---2-4/6--|---2---2-4/6-2----|
E|-----------7-4-4--|------------------|-2/4---0---0-2/4--|---0---0-2/4------|

Guitar 1 (distorted):
   
  F#5G#5 E5  E5  C#m    B        
E|------------------|------------------|
B|------------------|------------------|
G|---------------6--|---4-----x-8------|
D|-4/6---2---2-x----|------------------|
A|-4/6---2---2-x-4--|---2-----x-6------|
E|-2/4---0---0-x----|------------------|

Guitar 2 (distorted):

  F#5G#5 E5  E5  C#m    B        
E|------------------|------------------|
B|------------------|------------------|
G|---------------6--|---4-----x-4------|
D|-4/6---2---2-x-2--|---1-------1------|
A|-4/6---2---2-x-4--|---2-----x-2------|
E|-2/4---0---0-x----|------------------|

Guitar 3 (distorted):

   C#m9                                F#5G#5  E5 E5F#5G#5    E5 E5F#5G#5B
E|------------------|------------------|------------------|------------------|
B|------------------|------------------|------------------|------------------|
G|------------------|------------------|------------------|------------------|
D|------------------|------------------|------------------|------------------|
A|------------------|------------------|------------------|------------------|
E|------------------|------------------|------------------|------------------|

   C#m9                                F#5G#5  E5 E5F#5G#5    E5 E5F#5G#5B
E|------------------|------------------|------------------|------------------|
B|------------------|------------------|------------------|------------------|
G|------------------|------------------|------------------|------------------|
D|------------------|------------------|------------------|------------------|
A|------------------|------------------|------------------|------------------|
E|------------------|------------------|------------------|------------------|

   C#m9                                F#5G#5  E5 E5F#5G#5    E5 E5F#5G#5B
E|------------------|------------------|------------------|------------------|
B|------------------|------------------|------------------|------------------|
G|13----131311-9-8--|------------------|------------------|------------------|
D|------------------|------------------|------------------|------------------|
A|11----1111-9-7-6--|------------------|------------------|------------------|
E|------------------|------------------|------------------|------------------|

   C#m9                                F#5G#5  E5 E5F#5G#5    E5 E5F#5G#5B
E|------------------|------------------|------------------|------------------|
B|------------------|------------------|------------------|------------------|
G|13----131311-9-8--|------------------|------------------|------------------|
D|------------------|------------------|------------------|------------------|
A|11----1111-9-7-6--|------------------|------------------|------------------|
E|------------------|------------------|------------------|------------------|

Guitar 1 (delay):

   F#m                                   G#m                
E|------------------|------------------|------------------|------------------|
B|------------------|------------------|---------------5--|-------------5----|
G|-2-2-2-2-2-2-2-2--|-2-2-2-2-2-2-2-2--|-4-4-4-4-4-4-4-4--|-4-4-4-4-4-4-4-4--|
D|------------------|------------------|------------------|------------------|
A|------------------|------------------|------------------|------------------|
E|------------------|------------------|------------------|------------------|
   p.m.p.m.p.m.p.m.p.m.p.m.p.m.p.m.p.m.p.m.p.m.p.m.p.m.     p.m.p.m.p.m.

   A                                     G#m                G#
E|------------------|-----5---7--------|-7----------------|-----------4-4-4--|
B|------------------|-----5---5--------|-4-----------4----|-----------4-4-4--|
G|-6-6-6-6-6-6-6-6--|-6-6---6-----6-6--|-6-----------4----|-----------5-5-5--|
D|------------------|------------------|-------------4----|------------------|
A|------------------|------------------|------------------|------------------|
E|------------------|------------------|------------------|------------------|
  p.m.p.m.p.m.p.m.p.m.p.m.

   F#m                                   G#
E|------------------|---2--------------|---------------4--|-------------4----|
B|---------------2--|-------------2----|---------5--------|---5-----5--------|
G|---------2--------|---------2--------|-----------4------|-----4-----4---4--|
D|------------------|------------------|------------------|------------------|
A|------------------|------------------|------------------|------------------|
E|------------------|------------------|------------------|------------------|

   A                                     B
E|-4-------7---7-5--|-4---7---5-5-5-5--|-7-7-7-7-7-7-7-7--|-7-7-7-7-7-7-7-7--|
B|---5-5---5---5----|---5---5-5-5-5-5--|-7-7-7-7-7-7-7-7--|-7-7-7-7-7-7-7-7--|
G|-------4-6-6------|------------------|------------------|------------------|
D|------------------|------------------|------------------|------------------|
A|------------------|------------------|------------------|------------------|
E|------------------|------------------|------------------|------------------|
 
   B                                E5
E|-7-7-7-7-7-7-7-7--|-7-7-7-7-7-7-7----|------------------|------------------|
B|-7-7-7-7-7-7-7-7--|-7-7-7-7-7-7-7----|------------------|------------------|
G|------------------|---------------9/-|------------------|------------------|
D|------------------|---------------9/-|------------------|------------------|
A|------------------|---------------7/-|------------------|------------------|
E|------------------|------------------|------------------|------------------|

Guitar 2 (distorted): 

   F#m                                   G#m          
E|------------------|------------------|------------------|------------------|
B|------------------|-2-2-2------------|------------------|-5-5-4-4----------|
G|-2-2-2-2-2-2-2-2--|-2-2-2-2-2-2-2-2--|-4-4-4-4-4-4-4-4--|---------4-4------|
D|-4-4-4-4-4-4-4-4--|-------4-4-4-4-4--|-6-6-6-6-6-6-6-6--|-------------6-6--|
A|------------------|------------------|------------------|------------------|
E|------------------|------------------|------------------|------------------|
  p.m.p.m.p.m.p.m.p.m.p.m.p.m.p.m.p.m.p.m.p.m.p.m.p.m.p.m.p.m.p.m.p.m.p.m.p.m.

   A                                     G#m                G#
E|------------------|------------------|------------------|------------------|
B|------------------|------------------|---------5-5-4-4--|------------------|
G|-6-6-6-6-6-6-6-6--|-6-6-6-6-6-6-6-6--|-4-4-4-4----------|-5-5-----6-6-8-8--|
D|-7-7-7-7-7-7-7-7--|-7-7-7-7-7-7-7-777|-6-6-6-6----------|-----6-6----------|
A|------------------|------------------|------------------|------------------|
E|------------------|------------------|------------------|------------------|
  p.m.p.m.p.m.p.m.p.m.p.m.p.m.p.m.p.m.p.m.p.m.p.m.p.m.p.m.p.m.p.m.p.m.p.m.p.m.

   F#m                                   G#m          
E|------------------|------------------|------------------|------------------|
B|------------------|-2-2-2-2----------|------------------|-5-5-4-4----------|
G|-2-2-2-2-2-2-2-2--|-2-2-2-2-2-2-2-2--|-4-4-4-4-4-4-4-4--|---------4-4------|
D|-4-4-4-4-4-4-4-4--|---------4-4-4-4--|-6-6-6-6-6-6-6-6--|-------------6-6--|
A|------------------|------------------|------------------|------------------|
E|------------------|------------------|------------------|------------------|
  p.m.p.m.p.m.p.m.p.m.p.m.p.m.p.m.p.m.p.m.p.m.p.m.p.m.p.m.p.m.p.m.p.m.p.m.p.m.

   A                                     B
E|------------------|------------------|------------------|------------------|
B|------------------|------------------|------------------|------------------|
G|-2-2-2-2-2-2-2-2--|-2-2-2-2-2-2-2-2--|-4-----4-----4----|---4-----4---4-4--|
D|------------------|-2-2-2-2-2-2-2-2--|-4-----4-----4----|---4-----4---4-4--|
A|------------------|-----0-0-0-0-0-0--|-2-----2-----2----|---2-----2---2-2--|
E|------------------|------------------|------------------|------------------|
  p.m.p.m.p.m.p.m.p.m.p.m.p.m.p.m.p.m.

   B                                E5
E|------------------|------------------|------------------|------------------|
B|------------------|------------------|------------------|------------------|
G|-4-----4-----4----|---4-----4---4-9/-|------------------|------------------|
D|-4-----4-----4----|---4-----4---4-9/-|------------------|------------------|
A|-2-----2-----2----|---2-----2---2-7/-|------------------|------------------|
E|------------------|------------------|------------------|------------------|

Chorus 3:
------------------------------------------------------------------------------

Guitar 1 (distorted):

   E5
E|------------------|------------------|------------------|------------------|
B|------------------|------------------|------------------|------------------|
G|-9-9-9-9-9-9-9-9--|-9-9-9-9-9-9-9-9--|-9-9-9-9-9-9-9-9--|-9-9-9-9-9-9-9-9--|
D|-9-9-9-9-9-9-9-9--|-9-9-9-9-9-9-9-9--|-9-9-9-9-9-9-9-9--|-9-9-9-9-9-9-9-9--|
A|-7-7-7-7-7-7-7-7--|-7-7-7-7-7-7-7-7--|-7-7-7-7-7-7-7-7--|-7-7-7-7-7-7-7-7--|
E|------------------|------------------|------------------|------------------|

   C#m9                                  A9      A5         AM7     A5  AM7
E|------------------|-----4------------|------------------|------------------|
B|---------4-4-5-5--|---------4-4-5-0--|------------------|------------------|
G|------------------|-6-6---6----------|-4-4---4-2-2---2--|-1-1---1-2-2-1-1--|
D|-----6-6----------|------------------|-2-2---2-2-2---2--|-2-2---2-2-2-2-2--|
A|-4-4--------------|------------------|-0-0---0-0-0---0--|-0-0---0-0-0-0-0--|
E|------------------|------------------|------------------|------------------|

   E5
E|------------------|------------------|------------------|------------------|
B|------------------|------------------|------------------|------------------|
G|-9-9-9-9-9-9-9-9--|-9-9-9-9-9-9-9-9--|-9-9-9-9-9-9-9-9--|-9-9-9-9-9-9-9-9--|
D|-9-9-9-9-9-9-9-9--|-9-9-9-9-9-9-9-9--|-9-9-9-9-9-9-9-9--|-9-9-9-9-9-9-9-9--|
A|-7-7-7-7-7-7-7-7--|-7-7-7-7-7-7-7-7--|-7-7-7-7-7-7-7-7--|-7-7-7-7-7-7-7-7--|
E|------------------|------------------|------------------|------------------|

   C#m9                                  A9      A5         AM7     A5  
E|------------------|-----4------------|------------------|------------------|
B|---------4-4-5-5--|---------4-4-5-0--|------------------|------------------|
G|------------------|-6-6---6----------|-4-4---4-2-2---2--|-1-1---1-2-2-2-2--|
D|-----6-6----------|------------------|-2-2---2-2-2---2--|-2-2---2-2-2-2-2--|
A|-4-4--------------|------------------|-0-0---0-0-0---0--|-0-0---0-0-0-0-0--|
E|------------------|------------------|------------------|------------------|

   E5
E|------------------|------------------|------------------|------------------|
B|------------------|------------------|------------------|------------------|
G|---------9-9------|11-9-----9-911----|---------9-9------|111313131111-9-9--|
D|-----9-9-----9-9--|-----9-9-------9--|-----9-9-----9-9--|------------------|
A|-7-7--------------|------------------|-7-7--------------|------------------|
E|------------------|------------------|------------------|------------------|

   C#m9                                  A9      A5         AM7     A5  AM7
E|------------------|-----4------------|------------------|------------------|
B|---------4-4-5-5--|---------4-4-5-0--|------------------|------------------|
G|------------------|-6-6---6----------|-4-4---4-2-2---2--|-1-1---1-2-2-1-1--|
D|-----6-6----------|------------------|-2-2---2-2-2---2--|-2-2---2-2-2-2-2--|
A|-4-4--------------|------------------|-0-0---0-0-0---0--|-0-0---0-0-0-0-0--|
E|------------------|------------------|------------------|------------------|

   E5
E|------------------|------------------|-----9-9----------|------------------|
B|------------------|----1212----------|-----9-9----------|------------------|
G|---------9-91111--|1313----13131111--|-9-9-----9-9------|-9-91111-9-9------|
D|-----9-9----------|------------------|-------------9-9--|------------1111--|
A|-7-7--------------|------------------|------------------|------------------|
E|------------------|------------------|------------------|------------------|

   C#m9                                  A9      A5         AM7     A5  
E|------------------|-----4------------|------------------|------------------|
B|---------4-4-5-5--|---------4-4-5-0--|------------------|------------------|
G|------------------|-6-6---6----------|-4-4---4-2-2---2--|-1-1---1-2-2------|
D|-----6-6----------|------------------|-2-2---2-2-2---2--|-2-2---2-2-2------|
A|-4-4--------------|------------------|-0-0---0-0-0---0--|-0-0---0-0-0------|
E|------------------|------------------|------------------|------------------|

Guitar 1 (light tremelo):

   C#m7               G#m7               F#m7
E|-4----------------|-4----------------|-2----------------|------------------|
B|-5----------------|-4----------------|-2----------------|------------------|
G|-4----------------|-4----------------|-2----------------|------------------|
D|-6----------------|-4----------------|-2----------------|------------------|
A|-4----------------|-x----------------|-x----------------|------------------|
E|------------------|-4----------------|-2----------------|------------------|

Guitar 2 (distorted):

   E5
E|------------------|------------------|------------------|------------------|
B|------------------|------------------|------------------|------------------|
G|---------9-9------|11-9-----9-911----|---------9-9------|11-9-----8-8-9-9--|
D|-----9-9-----9-9--|-----9-9-------9--|-----9-9-----9-9--|-----9-9----------|
A|-7-7--------------|------------------|-7-7--------------|------------------|
E|------------------|------------------|------------------|------------------|

   C#m9                                  A9      A5         AM7     A5  AM7
E|---------2-2-4-4--|-----7-7-2-2-4----|------------------|------------------|
B|-----5-5----------|---------------0--|------------------|------------------|
G|-6-6--------------|-6-6--------------|-4-4---4-2-2---2--|-1-1---1-2-2-1-1--|
D|------------------|------------------|-2-2---2-2-2---2--|-2-2---2-2-2-2-2--|
A|------------------|------------------|-0-0---0-0-0---0--|-0-0---0-0-0-0-0--|
E|------------------|------------------|------------------|------------------|

   E5
E|------------------|------------------|------------------|------------------|
B|------------------|------------------|------------------|------------------|
G|---------9-9------|1111-9-9-----9-9--|---------9-9------|1313-9-9-8-8-9-9--|
D|-----9-9-----9-9--|---------9-9------|-----9-9-----9-9--|------------------|
A|-7-7--------------|------------------|-7-7--------------|------------------|
E|------------------|------------------|------------------|------------------|

   C#m9                                  A9      A5         AM7     A5 
E|---------2-2-4-4--|-----7-7-2-2-4----|------------------|------------------|
B|-----5-5----------|---------------0--|------------------|------------------|
G|-6-6--------------|-6-6--------------|-4-4---4-2-2---2--|-1-1---1-2-2-2-2--|
D|------------------|------------------|-2-2---2-2-2---2--|-2-2---2-2-2-2-2--|
A|------------------|------------------|-0-0---0-0-0---0--|-0-0---0-0-0-0-0--|
E|------------------|------------------|------------------|------------------|

   E5
E|------------------|------------------|------------------|------------------|
B|------------------|------------------|------------------|------------------|
G|---------9-9------|1111-9-9-----9-9--|---------9-9------|1313-9-9-8-8-9-9--|
D|-----9-9-----9-9--|---------9-9------|-----9-9-----9-9--|------------------|
A|-7-7--------------|------------------|-7-7--------------|------------------|
E|------------------|------------------|------------------|------------------|

   C#m9                                  A9      A5         AM7     A5  AM7
E|------------------|------------------|------------------|------------------|
B|1414--------------|---------------0--|------------------|------------------|
G|----131314141111--|1111-9-9141412----|-4-4---4-2-2---2--|-1-1---1-2-2-1-1--|
D|------------------|------------------|-2-2---2-2-2---2--|-2-2---2-2-2-2-2--|
A|------------------|------------------|-0-0---0-0-0---0--|-0-0---0-0-0-0-0--|
E|------------------|------------------|------------------|------------------|

   E5
E|------------------|------------------|------------------|------------------|
B|------------------|------------------|------------------|------------------|
G|---------9-9------|1111-9-9-----9-9--|---------9-9------|1313-9-9-8-8-9-9--|
D|-----9-9-----9-9--|---------9-9------|-----9-9-----9-9--|------------------|
A|-7-7--------------|------------------|-7-7--------------|------------------|
E|------------------|------------------|------------------|------------------|

   C#m9                                  A9      A5         AM7     A5  
E|---------2-2-4-4--|-----7-7-2-2-4----|------------------|------------------|
B|-----5-5----------|---------------0--|------------------|------------------|
G|-6-6--------------|-6-6--------------|-4-4---4-2-2---2--|-1-1---1-2-2------|
D|------------------|------------------|-2-2---2-2-2---2--|-2-2---2-2-2------|
A|------------------|------------------|-0-0---0-0-0---0--|-0-0---0-0-0------|
E|------------------|------------------|------------------|------------------|

   C#m7               G#m7               F#m7
E|------------------|------------------|------------------|------------------|
B|------------------|------------------|------------------|------------------|
G|-9----------------|11----------------|-9----------------|------------------|
D|------------------|------------------|------------------|------------------|
A|-7----------------|-9----------------|-7----------------|------------------|
E|------------------|------------------|------------------|------------------|

Outro:
------------------------------------------------------------------------------

Guitar 1 (delay/chorus):
             
   C#m   Cmb5               G#m                                     C#m
E|------------------|------------------|------------------|------------------|
B|------------------|------------------|------------------|------------------|
G|------------------|------------------|------------------|------------------|
D|------------------|------------------|------------------|------------------|
A|------------------|------------------|------------------|------------------|
E|------------------|------------------|------------------|------------------|

   C#m   Cmb5               G#m                                     C#m
E|------------------|------------------|------------------|------------------|
B|------------------|------------------|------------------|------------------|
G|------------------|------------------|------------------|------------------|
D|------------------|------------------|------------------|------------------|
A|------------------|------------------|------------------|------------------|
E|------------------|------------------|------------------|------------------|

   C#m   Cmb5               G#m                                     C#m
E|------------------|------------------|------------------|---------4--------|
B|------------------|------------------|---5-------5------|---------5-5-5-5--|
G|------------------|------------------|------------------|------------------|
D|------------------|------------------|------------------|------------------|
A|------------------|------------------|------------------|------------------|
E|------------------|------------------|------------------|------------------|
                                          p.m.    p.m.              p.m.p.m.

   C#m   Cmb5               G#m                                     C#m
E|------------------|------------------|------------------|------------------|
B|------------------|-2-4-4-4-4-4-4-4--|------------------|------------------|
G|-4-6--------------|------------------|---4-4-4-4-4-4-4--|------------------|
D|------------------|------------------|---4-4-4-4-4-4-4--|------------------|
A|------------------|------------------|------------------|------------------|
E|------------------|------------------|------------------|------------------|
   p.m.               p.m.p.m.p.m.p.m.    p.m.p.m.p.m.p.m.

   C#m   Cmb5               G#m                                     C#m
E|------------------|------------------|-------------7----|-7---7------------|
B|------------------|---------------7--|-7/9-9-9-9-----9--|---9---9----------|
G|------------------|-4-6-6-6----------|-----------8------|---------------6--|
D|------------------|------------------|------------------|------------------|
A|------------------|------------------|------------------|------------------|
E|------------------|------------------|------------------|------------------|
                      p.m.p.m.      p.m.p.m.p.m.p.m.p.m.p.m.p.m.p.m.     p.m.

   C#m                G#m                C#m
E|------------------|------------------|------------------|------------------|
B|-5-5-4------------|------------------|-5-5-4---5-5-4----|-5-5-4------------|
G|-------6----------|-6-6-8---------6--|-------6-------6--|-------6-----4-6--|
D|------------------|-------6----------|------------------|------------------|
A|------------------|------------------|------------------|------------------|
E|------------------|------------------|------------------|------------------|
   p.m.p.m.           p.m.p.m.      p.m.p.m.p.m.p.m.p.m.p.m.p.m.p.m.    p.m.

   C#m                G#m                C#m
E|------------------|------------------|------------------|------------------|
B|-5-5-5-4----------|------------------|-5-5-4------------|-----4------------|
G|------------------|-6-6-8---------6--|-------6----------|---6--------------|
D|------------------|-------6----------|------------------|------------------|
A|------------------|------------------|------------------|------------------|
E|------------------|------------------|------------------|------------------|
   p.m.p.m.           p.m.p.m.      p.m.p.m.p.m.              

                      G#m
E|------------------|------------------|------------------|------------------|
B|------------------|---------------7--|-7-7-7-7-7-7-7-7/-|-9-9-9-9----------|
G|------------------|-4-4-4-6----------|------------------|------------------|
D|------------------|------------------|------------------|------------------|
A|------------------|------------------|------------------|------------------|
E|------------------|------------------|------------------|------------------|
                      p.m.p.m.      p.m.p.m.p.m.p.m.p.m.    vibrato

   C#m                G#m
E|------------------|------------------|------------------|------------------|
B|-5-5-4------------|------------------|-----9-9-9-9-9-7--|-7-7-7-7----------|
G|-------6----------|-6-6-8------------|------------------|------------------|
D|------------------|-------6----------|------------------|------------------|
A|------------------|------------------|------------------|------------------|
E|------------------|------------------|------------------|------------------|
   p.m.p.m.           p.m.p.m.               p.m.p.m.p.m.   vibrato

   C#m                G#m
E|------------------|------------------|------------------|------------------|
B|-5-5-4------------|------------------|------------------|------------------|
G|-------6----------|-6-6-8------------|-----6-6-6-6-6-6--|-6-6-6-6----------|
D|------------------|-------6----------|------------------|------------------|
A|------------------|------------------|------------------|------------------|
E|------------------|------------------|------------------|------------------|
   p.m.p.m.           p.m.p.m.               p.m.p.m.p.m.   vibrato

   C#m                G#m                C#m
E|------------------|------------------|------------------|------------------|
B|-5-5-4------------|------------------|-5-5-4---5-5-4----|-5-5-4------------|
G|-------6----------|-6-6-8---------6--|-------6-------6--|-------6----------|
D|------------------|-------6----------|------------------|------------------|
A|------------------|------------------|------------------|------------------|
E|------------------|------------------|------------------|------------------|
   p.m.               p.m.p.m.      p.m.p.m.p.m.p.m.p.m.p.m.p.m.p.m.


-----------------------------------------------------------------------------
If this tab was helpful and you're as big of a bandits fan as I am, be on the
lookout for more Rx Bandits tabs by yours truly.
Suggest correction
Creating personal tab
Creating personal tab
You can edit any tab online and save it as your Personal.

You can edit, replace or remove any tab part or add personal notes – all changes will be seen only by you.

Personal tabs can be accessed anytime from any device, even offline.
Learn more »
Give kudos to tab author, rate the tab!
1 2 3 4 5
comments
print report bad tab
1 comment total.
0 reply
adslam3 1,342 Jan 21, 2009 11:29 AM

really really good tab 5*

guest
You may want to rate the tab now too:
select rating
Wanna post a correction for this tab? Suggest correction