Oops, an error
Loading. Please wait.

Pal-Treaux tab

version 1
version 1

Whole song

Interactive

1,672 views 3 this week
no commentswrite comment
1 2 3 4 5
1 last vote to show rating
add to favorites
×
Save as Personal and add changes to this tab that will be seen only by you. Learn more ›
×
You can save this tab as Personal to edit and correct it or add notes. All changes will be seen only by you. Learn more »
launch autoscroll
font size
0
reset
how to read this tab
guitar tuner
edit
Autoscroll
slow
fast
+/-
esc
set tempo
stop
Author
Difficulty
I am not submitting this as my own, i am just making it available to more people out there.
Again this was not tabbed by me. The person who should get props for tabbing this out is
named below.

Pal-Treaux - Rx Bandits
-----------------------------------------------------------------------------
Tabbed by: Trevor Eells
Email: blockrock45@hotmail.com

Tuning: E A D G B e

e|-3-3-3-3-3-3-3-3--5-5--5-5--5----------------------------------------------|
B|-3-3-3-3-3-3-3-3--5-5--5-5--5----------------------------------------------|
G|-4-4-4-4-4-4-4-4--6-6--6-6--6----------------------------------------------|
D|-5-5-5-5-5-5-5-5--7-7--7-7--7----------------------------------------------|
A|-5-5-5-5-5-5-5-5--7-7--7-7--7----------------------------------------------|
E|-3-3-3-3-3-3-3-3--5-5--5-5--5----------------------------------------------|

  play this part twice
e|---------------------------------------------------------------------------|
B|---------5h7-5---------------------------------------5h7-5-----------------|
G|-------7-------7---------------6h7-6---------------7-------7---------------|
D|-----7---------------5-------9-------7---7-------7---------------5---------|
A|-5-5---------------5-------9---------------7-5-5---------------5-----------|
E|-----------------3-----7-7-------------5---------------------3-------------|

e|---------------------------------------------------------------------------|
B|---------------------------------------------------------------------------|
G|---------6h7-6------8/9-6--------------------------------------------------|
D|-------9-------7--7-------7------------------------------------------------|
A|-----9---------------------------------------------------------------------|
E|-7-7-----------------------------------------------------------------------|

  then finish with this
e|---------------------------------------------------------------------------|
B|---------5h7-5---------------------------------------5h7-5-----------------|
G|-------7-------7---------------6h7-6---------------7-------7---------------|
D|-----7---------------5-------9-------7---7-------7---------------5---------|
A|-5-5---------------5-------9---------------7-5-5---------------5-----------|
E|-----------------3-----7-7-------------5---------------------3-------------|

e|---------------------------------------------------------------------------|
B|---------------------------------------------------------------------------|
G|---------6h7-6-------------------------------------------------------------|
D|-------9-------7---7-------------------------------------------------------|
A|-----9---------------7-----------------------------------------------------|
E|-7-7-------------5---------------------------------------------------------|

                        you figure out the rhythm here it's not that hard
e|-5-5--7-7--5-5---3-3--3-3-3-3--5-5-5-5--7-7-7-7-7-7-7-7--3-3-3-3--5-5-5-5--|
B|-5-5--7-7--5-5---3-3--3-3-3-3--5-5-5-5--7-7-7-7-7-7-7-7--3-3-3-3--5-5-5-5--|
G|-6-6--8-8--6-6---4-4--4-4-4-4--6-6-6-6--8-8-8-8-8-8-8-8--4-4-4-4--6-6-6-6--|
D|-7-7--9-9--7-7---5-5--5-5-5-5--7-7-7-7--9-9-9-9-9-9-9-9--5-5-5-5--7-7-7-7--|
A|-7-7--9-9--7-7---5-5--5-5-5-5--7-7-7-7--9-9-9-9-9-9-9-9--5-5-5-5--7-7-7-7--|
E|-5-5--7-7--5-5---3-3--3-3-3-3--5-5-5-5--7-7-7-7-7-7-7-7--3-3-3-3--5-5-5-5--|

  play this part twice
e|---------------------------------------------------------------------------|
B|---------5h7-5---------------------------------------5h7-5-----------------|
G|-------7-------7---------------6h7-6---------------7-------7---------------|
D|-----7---------------5-------9-------7---7-------7---------------5---------|
A|-5-5---------------5-------9---------------7-5-5---------------5-----------|
E|-----------------3-----7-7-------------5---------------------3-------------|

e|---------------------------------------------------------------------------|
B|---------------------------------------------------------------------------|
G|---------6h7-6------8/9-6--------------------------------------------------|
D|-------9-------7--7-------7------------------------------------------------|
A|-----9---------------------------------------------------------------------|
E|-7-7-----------------------------------------------------------------------|

  then finish with this
e|---------------------------------------------------------------------------|
B|---------5h7-5---------------------------------------5h7-5-----------------|
G|-------7-------7---------------6h7-6---------------7-------7---------------|
D|-----7---------------5-------9-------7---7-------7---------------5---------|
A|-5-5---------------5-------9---------------7-5-5---------------5-----------|
E|-----------------3-----7-7-------------5---------------------3-------------|

e|---------------------------------------------------------------------------|
B|---------------------------------------------------------------------------|
G|---------6h7-6-------------------------------------------------------------|
D|-------9-------7---7-------------------------------------------------------|
A|-----9---------------7-----------------------------------------------------|
E|-7-7-------------5---------------------------------------------------------|

                        you figure out the rhythm here it's not that hard
e|-5-5--7-7--5-5---3-3--3-3-3-3--5-5-5-5--7-7-7-7-7-7-7-7--3-3-3-3--5-5-5-5--|
B|-5-5--7-7--5-5---3-3--3-3-3-3--5-5-5-5--7-7-7-7-7-7-7-7--3-3-3-3--5-5-5-5--|
G|-6-6--8-8--6-6---4-4--4-4-4-4--6-6-6-6--8-8-8-8-8-8-8-8--4-4-4-4--6-6-6-6--|
D|-7-7--9-9--7-7---5-5--5-5-5-5--7-7-7-7--9-9-9-9-9-9-9-9--5-5-5-5--7-7-7-7--|
A|-7-7--9-9--7-7---5-5--5-5-5-5--7-7-7-7--9-9-9-9-9-9-9-9--5-5-5-5--7-7-7-7--|
E|-5-5--7-7--5-5---3-3--3-3-3-3--5-5-5-5--7-7-7-7-7-7-7-7--3-3-3-3--5-5-5-5--|

once again you figure out the rhythm
e|-5-5-5-5--5-5-5-5--7-7-7-7-7-7-7-7-----------------------------------------|
B|-7-7-7-7--5-5-5-5--7-7-7-7-7-7-7-7-----------------------------------------|
G|-7-7-7-7--6-6-6-6--8-8-8-8-8-8-8-8-----------------------------------------|
D|-7-7-7-7--7-7-7-7--9-9-9-9-9-9-9-9-----------------------------------------|
A|-5-5-5-5--7-7-7-7--9-9-9-9-9-9-9-9-----------------------------------------|
E|----------5-5-5-5--7-7-7-7-7-7-7-7-----------------------------------------|

e|-2/5-5-x-2-5-x-2/5-x-2-5-2/5-5-x-2-5-x-2/5-x-2-----------------------------|
B|-4/7-7-x-2-5-x-4/7-x-2-5-4/7-7-x-2-5-x-4/7-x-2-----------------------------|
G|-4/7-7-x-3-6-x-4/7-x-3-6-4/7-7-x-3-6-x-4/7-x-3-----------------------------|
D|-4/7-7-x-4-7-x-4/7-x-4-7-4/7-7-x-4-7-x-4/7-x-4-----------------------------|
A|-2/5-5-x-4-7-x-2/5-x-4-7-2/5-5-x-4-7-x-2/5-x-4-----------------------------|
E|-------x-2-5-x-----x-2-5-------x-2-5-x-----x-2-----------------------------|

once again you figure out the rhythm
e|-5-5-5-5--5-5-5-5--7-7-7-7-7-7-7-7-----------------------------------------|
B|-7-7-7-7--5-5-5-5--7-7-7-7-7-7-7-7-----------------------------------------|
G|-7-7-7-7--6-6-6-6--8-8-8-8-8-8-8-8-----------------------------------------|
D|-7-7-7-7--7-7-7-7--9-9-9-9-9-9-9-9-----------------------------------------|
A|-5-5-5-5--7-7-7-7--9-9-9-9-9-9-9-9-----------------------------------------|
E|----------5-5-5-5--7-7-7-7-7-7-7-7-----------------------------------------|

                                                  <<<<<>>>>>>
e|-2/5-5-x-2-5-x-2/5-x-2-5-2/5-5-x-2-5-x-2/5-x-2--6-6-6-6-6-6-6-6------------|
B|-4/7-7-x-2-5-x-4/7-x-2-5-4/7-7-x-2-5-x-4/7-x-2--6-6-6-6-6-6-6-6------------|
G|-4/7-7-x-3-6-x-4/7-x-3-6-4/7-7-x-3-6-x-4/7-x-3--7-7-7-7-7-7-7-7------------|
D|-4/7-7-x-4-7-x-4/7-x-4-7-4/7-7-x-4-7-x-4/7-x-4--8-8-8-8-8-8-8-8------------|
A|-2/5-5-x-4-7-x-2/5-x-4-7-2/5-5-x-4-7-x-2/5-x-4--8-8-8-8-8-8-8-8------------|
E|-------x-2-5-x-----x-2-5-------x-2-5-x-----x-2--6-6-6-6-6-6-6-6------------|

play this part really fast
e|---------------------------------------------------------------------------|
B|-13-13-11-11-13-13-11-11---------------------------------------------------|
G|-------------------------12-12-10-10-12-12-10-10---------------------------|
D|-------------------------------------------------13-13-12-12-10------------|
A|---------------------------------------------------------------------------|
E|---------------------------------------------------------------------------|

fast
e|---------------------------------------------------------------------------|
B|---------------------------------------------------------------------------|
G|---------------------------------------------------------------------------|
D|-13-13-12-12-13-13-12-12-10-10-8-8-10-10-8-8-------------------------------|
A|---------------------------------------------11-11-10-10-------------------|
E|---------------------------------------------------------11----------------|

fast
e|---------------------------------------------------------------------------|
B|-13-13-11-11-13-13-11-11---------------------------------------------------|
G|-------------------------12-12-10-10-12-12-10-10---------------------------|
D|-------------------------------------------------13-13-12-12-10------------|
A|---------------------------------------------------------------------------|
E|---------------------------------------------------------------------------|

fast
e|---------------------------------------------------------------------------|
B|---------------------------------------------------------------------------|
G|---------------------------------------------------------------------------|
D|-13-13-12-12-13-13-12-12-10-10-8-8-10-10-8-8-------------------------------|
A|---------------------------------------------11-11-10-10-------------------|
E|---------------------------------------------------------11----------------|

fast
e|---------------------------------------------------------------------------|
B|-12-12-10-10-12-12-10-10---------------------------------------------------|
G|-------------------------11-11-9-9-11-11-9-9-------------------------------|
D|---------------------------------------------12-12-11-11-9-9-9-9-----------|
A|---------------------------------------------------------------------------|
E|---------------------------------------------------------------------------|

e|-3-3-3-3-3-3-3-3--5-5--5-5--5----------------------------------------------|
B|-3-3-3-3-3-3-3-3--5-5--5-5--5----------------------------------------------|
G|-4-4-4-4-4-4-4-4--6-6--6-6--6----------------------------------------------|
D|-5-5-5-5-5-5-5-5--7-7--7-7--7----------------------------------------------|
A|-5-5-5-5-5-5-5-5--7-7--7-7--7----------------------------------------------|
E|-3-3-3-3-3-3-3-3--5-5--5-5--5----------------------------------------------|

I combined both guitars into one on this part
e|---------------------------------------------------------------------------|
B|---------------------------------------------------------------------------|
G|-7-7-7-7-------------------------------------------------------------------|
D|-7-7-7-7-5-5-9-9-9-9---7/4-4-4-4-4-5-5-9-9-9-9---7/4-4-4-4-4-5-5-9-9-9-9---|
A|-5-5-5-5-5-5-9-9-9-9-7-----5-5-5-5-5-5-9-9-9-9-7-----5-5-5-5-5-5-9-9-9-9---|
E|---------3-3-7-7-7-7---------------3-3-7-7-7-7---------------3-3-7-7-7-7---|

e|---------------------------------------------------------------------------|
B|---------------------------------------------------------------------------|
G|---------------------------------------------------------------------------|
D|---7/4-4-4-4-4-5-5-9-9-9-9---7---------------------------------------------|
A|-7-----5-5-5-5-5-5-9-9-9-9-7-----------------------------------------------|
E|---------------3-3-7-7-7-7-------------------------------------------------|

play this part three times
e|---------------------------------------------------------------------------|
B|---------------------------------------------------------------------------|
G|-7-7-7-7-7-7-7-7-----------------------------------------------------------|
D|-7-7-7-7-7-7-7-7-5-5-5-5-9-9-9-9-9-9-9-9-7-7-7-7---------------------------|
A|-5-5-5-5-5-5-5-5-5-5-5-5-9-9-9-9-9-9-9-9-7-7-7-7---------------------------|
E|-----------------3-3-3-3-7-7-7-7-7-7-7-7-5-5-5-5---------------------------|

and finish with this
e|---------------------------------------------------------------------------|
B|---------------------------------------------------------------------------|
G|-7-7-7-7-7-7-7-7-----------------------------------------------------------|
D|-7-7-7-7-7-7-7-7-5-5-5-5-9-9-9-9-9-9-9-9-7---------------------------------|
A|-5-5-5-5-5-5-5-5-5-5-5-5-9-9-9-9-9-9-9-9-7---------------------------------|
E|-----------------3-3-3-3-7-7-7-7-7-7-7-7-5---------------------------------|

                        you figure out the rhythm here it's not that hard
e|-5-5--7-7--5-5---3-3--3-3-3-3--5-5-5-5--7-7-7-7-7-7-7-7--3-3-3-3--5-5-5-5--|
B|-5-5--7-7--5-5---3-3--3-3-3-3--5-5-5-5--7-7-7-7-7-7-7-7--3-3-3-3--5-5-5-5--|
G|-6-6--8-8--6-6---4-4--4-4-4-4--6-6-6-6--8-8-8-8-8-8-8-8--4-4-4-4--6-6-6-6--|
D|-7-7--9-9--7-7---5-5--5-5-5-5--7-7-7-7--9-9-9-9-9-9-9-9--5-5-5-5--7-7-7-7--|
A|-7-7--9-9--7-7---5-5--5-5-5-5--7-7-7-7--9-9-9-9-9-9-9-9--5-5-5-5--7-7-7-7--|
E|-5-5--7-7--5-5---3-3--3-3-3-3--5-5-5-5--7-7-7-7-7-7-7-7--3-3-3-3--5-5-5-5--|

once again you figure out the rhythm
e|-5-5-5-5--5-5-5-5--7-7-7-7-7-7-7-7-----------------------------------------|
B|-7-7-7-7--5-5-5-5--7-7-7-7-7-7-7-7-----------------------------------------|
G|-7-7-7-7--6-6-6-6--8-8-8-8-8-8-8-8-----------------------------------------|
D|-7-7-7-7--7-7-7-7--9-9-9-9-9-9-9-9-----------------------------------------|
A|-5-5-5-5--7-7-7-7--9-9-9-9-9-9-9-9-----------------------------------------|
E|----------5-5-5-5--7-7-7-7-7-7-7-7-----------------------------------------|

e|-2/5-5-x-2-5-x-2/5-x-2-5-2/5-5-x-2-5-x-2/5-x-2-----------------------------|
B|-4/7-7-x-2-5-x-4/7-x-2-5-4/7-7-x-2-5-x-4/7-x-2-----------------------------|
G|-4/7-7-x-3-6-x-4/7-x-3-6-4/7-7-x-3-6-x-4/7-x-3-----------------------------|
D|-4/7-7-x-4-7-x-4/7-x-4-7-4/7-7-x-4-7-x-4/7-x-4-----------------------------|
A|-2/5-5-x-4-7-x-2/5-x-4-7-2/5-5-x-4-7-x-2/5-x-4-----------------------------|
E|-------x-2-5-x-----x-2-5-------x-2-5-x-----x-2-----------------------------|

once again you figure out the rhythm
e|-5-5-5-5--5-5-5-5--7-7-7-7-7-7-7-7-----------------------------------------|
B|-7-7-7-7--5-5-5-5--7-7-7-7-7-7-7-7-----------------------------------------|
G|-7-7-7-7--6-6-6-6--8-8-8-8-8-8-8-8-----------------------------------------|
D|-7-7-7-7--7-7-7-7--9-9-9-9-9-9-9-9-----------------------------------------|
A|-5-5-5-5--7-7-7-7--9-9-9-9-9-9-9-9-----------------------------------------|
E|----------5-5-5-5--7-7-7-7-7-7-7-7-----------------------------------------|

                                                  <<<<<>>>>>>
e|-2/5-5-x-2-5-x-2/5-x-2-5-2/5-5-x-2-5-x-2/5-x-2--0-0-0-0-0-0-0-0------------|
B|-4/7-7-x-2-5-x-4/7-x-2-5-4/7-7-x-2-5-x-4/7-x-2--0-0-0-0-0-0-0-0------------|
G|-4/7-7-x-3-6-x-4/7-x-3-6-4/7-7-x-3-6-x-4/7-x-3--1-1-1-1-1-1-1-1------------|
D|-4/7-7-x-4-7-x-4/7-x-4-7-4/7-7-x-4-7-x-4/7-x-4--2-2-2-2-2-2-2-2------------|
A|-2/5-5-x-4-7-x-2/5-x-4-7-2/5-5-x-4-7-x-2/5-x-4--2-2-2-2-2-2-2-2------------|
E|-------x-2-5-x-----x-2-5-------x-2-5-x-----x-2--0-0-0-0-0-0-0-0------------|

Solo Stylee
e|---------------------------------------------------------------------------|
B|-------7-8-7---------5-7-5---------7-8-7---------5-7-5---------------------|
G|-----9-------9-----7-------7-----9-------9-----7-------7-------------------|
D|---9-------------7-------------9-------------7-----------------------------|
A|-7-------------5-------------7-------------5-------------------------------|
E|---------------------------------------------------------------------------|

e|---------------------------------------------------------------------------|
B|---------------------------------------------------------------------------|
G|-------6-7-6---------4-6-4-----------7-8-7H8P5-----5-7-5-------------------|
D|-----9-------9-----7-------7------10-------------8-------8-----------------|
A|---9-------------7-------------10--------------8---------------------------|
E|-7-------------5-------------8---------------6-----------------------------|

e|---------------------------------------------------------------------------|
B|---------8-9-8h9p6-------6-8-6h8p4---------8-9-8h9p6-------6-8-6-----------|
G|------10---------------8----------------10---------------8-------8---------|
D|---10----------------8---------------10----------------8-------------------|
A|-8-----------------6---------------8-----------------6---------------------|
E|---------------------------------------------------------------------------|

e|---------------------------------------------------------------------------|
B|---------------------------------------------------------------------------|
G|---------7-8-7h8p5-------5-7-5-----------8-9-8h9p6-------6-8-6-------------|
D|------10---------------8-------8------11---------------9-------9-----------|
A|---10----------------8-------------11----------------9---------------------|
E|-8-----------------6-------------9-----------------7-----------------------|

e|--------------7-9----------7----------------7-9-----------7----------------|
B|---------9-10----------7-9---9---------9-10-----------7-9---9--------------|
G|------11-------------9--------------11--------------9----------------------|
D|---11--------------9-------------11---------------9------------------------|
A|-9---------------7-------------9----------------7--------------------------|
E|---------------------------------------------------------------------------|

e|---------------------------------------------------------------------------|
B|-------------7-9-----------------------------8-10--------------------------|
G|---------8-9-----------6-8-6------------9-10--------------7-9-7------------|
D|------11-------------9-------8-------12----------------10-------10---------|
A|---11--------------9--------------12----------------10---------------------|
E|-9---------------7-------------10-----------------8------------------------|

e|---------------------------------------------------------------------------|
B|---------------------------------------------------------------------------|
G|---------------------------------------------------------------------------|
D|-5-5-55-7-9--4-4-5-5-7-7-77-5-5-55-7-9--5-5-5-5-7-7-77---------------------|
A|-7-7-77-9-10-5-5-7-7-9-9-99-7-7-77-9-10-4-4-7-7-9-9-99---------------------|
E|---------------------------------------------------------------------------|

e|---------------------------------------------------------------------------|
B|---------------------------------------------------------------------------|
G|---------------------------------------------------------------------------|
D|-2-2-22-4-4-6-1-1-2-2-4-4-44-1-1-1-1-3-5-0-0-0-1-1-3\----------------------|
A|-4-4-44-6-6-7-2-2-4-4-6-6-66-3-3-3-3-5-6-1-1-1-3-3-5\----------------------|
E|---------------------------------------------------------------------------|

| /  slide up
| \  slide down
| h  hammer-on
| p  pull-off
| ~  vibrato
| +  harmonic
| x  Left Hand Mute
===============================================================================

            
            
Suggest correction
Creating personal tab
Creating personal tab
You can edit any tab online and save it as your Personal.

You can edit, replace or remove any tab part or add personal notes – all changes will be seen only by you.

Personal tabs can be accessed anytime from any device, even offline.
Learn more »
Give kudos to tab author, rate the tab!
1 2 3 4 5
comments
print report bad tab
guest
You may want to rate the tab now too:
select rating
Wanna post a correction for this tab? Suggest correction