Oops, an error
Loading. Please wait.

Always Remember Me tab

version 3
version 3

Whole song

  • The other tabs of this song were fairly inaccurate... Show more
151 views 9 this week
no commentswrite comment
1 2 3 4 5
3 more votes to show rating
add to favorites
×
Save as Personal and add changes to this tab that will be seen only by you. Learn more ›
×
You can save this tab as Personal to edit and correct it or add notes. All changes will be seen only by you. Learn more »
launch autoscroll
font size
0
reset
how to read this tab
guitar tuner
edit
Autoscroll
slow
fast
+/-
esc
set tempo
stop
Author
Difficulty
About this tab version
The other tabs of this song were fairly inaccurate. This tab should be more accurate and easier to play and it sounds almost identical to Ry's version. Enjoy. Was this info helpful? Yes No
[Intro]

e|-------------------------------------------------------------------------------------------------------|
B|-------------------------------------------------------------------------------------------------------|
G|-1-------1----1-------1----1-------1----1-------1----1-------1----1-------1----1-------1----1-------1--|
D|-----2------------2------------2------------2------------2------------2------------2------------2------|
A|-0---------0--0---------0--0---------0--0--------0-----------------------------------------------------|
E|-----------------------------------------------------0---------0--0---------0--0---------0--0---------0|

e|-------------------------------------------------------------------------------------------------------|
B|-------------------------------------------------------------------------------------------------------|
G|-1-------1----1-------1----1-------1------2---4------1-------1----1-------1----1-------1----1-------1--|
D|-----2------------2------------2----------4---6----------2------------2------------2------------2------|
A|-0---------0--0---------0--0---------0-----------------------------------------------------------------|
E|-----------------------------------------------------0---------0--0---------0--0---------0--0---------0|


[Verse 1]

  Two by two lovers stand on the beach in Santa Monica                     
e|-------------------------------------------------------------------------------------------------------|
B|-------------------------------------------------------------------------------------------------------|
G|-1-------1----1-------1----1-------1----1-------1----1-------1----1-------1----1-------1----1-------1--|
D|-----2------------2------------2------------2------------2------------2------------2------------2------|
A|-0---------0--0---------0--0---------0--0--------0-----------------------------------------------------|
E|-----------------------------------------------------0---------0--0---------0--0---------0--0---------0|
                                                                                             
                                                                                             [Chorus]
 Pretty eyes, long hair, smells so sweet like summer in the air                              Watch me as I  
e|-------------------------------------------------------------------------------------------------------|
B|-------------------------------------------------------------------------------------------------------|
G|-1-------1----1-------1----1-------1----1-------1----1-------1----1-------1----1-------1----1-------1--|
D|-----2------------2------------2------------2------------2------------2------------2------------2------|
A|-0---------0--0---------0--0---------0--0--------0-----------------------------------------------------|
E|-----------------------------------------------------0---------0--0---------0--0---------0--0---------0|


[Chorus]

  fall                       ...into the water calling                  Watch me as I
e|---------------------------------------------------------------------------|
B|---------------------------------------------------------------------------|
G|-2-2-2-2---2--/--4--6-6-6-6---6--/--8--9-9-9-9---9--/--13---8-8-8-8---8----|
D|---------------------------------------------------------------------------|
A|---------------------------------------------------------------------------|
E|-2-------2-2-/---4--5-------5-5--/--7--9-------9--9--/--12--7------7--7----|

   sink                      ...into the sea and always remember...
e|-----------------------------------------------------------------------|
B|-----------------------------------------------------------------------|
G|--2-2-2-2---2--/--4--6-6-6-6---6--/--8--9-9-9-9---9--/--13---8-8-8-8---|
D|-----------------------------------------------------------------------|
A|-----------------------------------------------------------------------|
E|--2-------2-2-/---4--5-------5-5--/--7--9-------9--9--/--12--7------7--|

                        me.
e|--------------------------|
B|--------------------------|
G|-8-8-8-8----8-8-8-8---8---|
D|--------------------------|
A|--------------------------|
E|-7-------7--7-------7-7---|


[Verse 2]

Come back,back to me, back to where the mountains meet the sea
e|-------------------------------------------------------------------------------------------------------|
B|-------------------------------------------------------------------------------------------------------|
G|-1-------1----1-------1----1-------1----1-------1----1-------1----1-------1----1-------1----1-------1--|
D|-----2------------2------------2------------2------------2------------2------------2------------2------|
A|-0---------0--0---------0--0---------0--0--------0-----------------------------------------------------|
E|-----------------------------------------------------0---------0--0---------0--0---------0--0---------0|

We'll build a house of driftwood and keep it simple cause simple is good                     Watch me as I
e|-------------------------------------------------------------------------------------------------------|
B|-------------------------------------------------------------------------------------------------------|
G|-1-------1----1-------1----1-------1----1-------1----1-------1----1-------1----1-------1----1-------1--|
D|-----2------------2------------2------------2------------2------------2------------2------------2------|
A|-0---------0--0---------0--0---------0--0--------0-----------------------------------------------------|
E|-----------------------------------------------------0---------0--0---------0--0---------0--0---------0|


[Chorus]
  
  fall                       ...into the water calling                  Watch me as I
e|---------------------------------------------------------------------------|
B|---------------------------------------------------------------------------|
G|-2-2-2-2---2--/--4--6-6-6-6---6--/--8--9-9-9-9---9--/--13---8-8-8-8---8----|
D|---------------------------------------------------------------------------|
A|---------------------------------------------------------------------------|
E|-2-------2-2-/---4--5-------5-5--/--7--9-------9--9--/--12--7------7--7----|

   sink                      ...into the sea and always remember...
e|-----------------------------------------------------------------------|
B|-----------------------------------------------------------------------|
G|--2-2-2-2---2--/--4--6-6-6-6---6--/--8--9-9-9-9---9--/--13---8-8-8-8---|
D|-----------------------------------------------------------------------|
A|-----------------------------------------------------------------------|
E|--2-------2-2-/---4--5-------5-5--/--7--9-------9--9--/--12--7------7--|

                        me.
e|--------------------------|
B|--------------------------|
G|-8-8-8-8----8-8-8-8---8---|
D|--------------------------|
A|--------------------------|
E|-7-------7--7-------7-7---|


[Bridge]

                                           Oooo                                               Oooo          
e|-------------------------------------------------------------------------------------------------------|
B|-------------------------------------------------------------------------------------------------------|
G|-1-------1----1-------1----1-------1------2---4------1-------1----1-------1----1-------1----1-------1--|
D|-----2------------2------------2----------4---6----------2------------2------------2------------2------|
A|-0---------0--0---------0--0---------0-----------------------------------------------------------------|
E|-----------------------------------------------------0---------0--0---------0--0---------0--0---------0|

                                            Ahhhh                                            Watch me as I
e|-------------------------------------------------------------------------------------------------------|
B|-------------------------------------------------------------------------------------------------------|
G|-1-------1----1-------1----1-------1------2---4------1-------1----1-------1----1-------1----1-------1--|
D|-----2------------2------------2----------4---6----------2------------2------------2------------2------|
A|-0---------0--0---------0--0---------0-----------------------------------------------------------------|
E|-----------------------------------------------------0---------0--0---------0--0---------0--0---------0|


[Chorus]
  
 fall                       ...into the water calling                  Watch me as I
e|---------------------------------------------------------------------------|
B|---------------------------------------------------------------------------|
G|-2-2-2-2---2--/--4--6-6-6-6---6--/--8--9-9-9-9---9--/--13---8-8-8-8---8----|
D|---------------------------------------------------------------------------|
A|---------------------------------------------------------------------------|
E|-2-------2-2-/---4--5-------5-5--/--7--9-------9--9--/--12--7------7--7----|

   sink                      ...into the sea and always remember...
e|-----------------------------------------------------------------------|
B|-----------------------------------------------------------------------|
G|--2-2-2-2---2--/--4--6-6-6-6---6--/--8--9-9-9-9---9--/--13---8-8-8-8---|
D|-----------------------------------------------------------------------|
A|-----------------------------------------------------------------------|
E|--2-------2-2-/---4--5-------5-5--/--7--9-------9--9--/--12--7------7--|

                        me.
e|--------------------------|
B|--------------------------|
G|-8-8-8-8----8-8-8-8---8---|
D|--------------------------|
A|--------------------------|
E|-7-------7--7-------7-7---|


[Outro]

                                           Oooo                                               Oooo          
e|-------------------------------------------------------------------------------------------------------|
B|-------------------------------------------------------------------------------------------------------|
G|-1-------1----1-------1----1-------1------2---4------1-------1----1-------1----1-------1----1-------1--|
D|-----2------------2------------2----------4---6----------2------------2------------2------------2------|
A|-0---------0--0---------0--0---------0-----------------------------------------------------------------|
E|-----------------------------------------------------0---------0--0---------0--0---------0--0---------0|

                                            Ahhhh                                            
e|-------------------------------------------------------------------------------------------------------|
B|-------------------------------------------------------------------------------------------------------|
G|-1-------1----1-------1----1-------1------2---4------1-------1----1-------1----1-------1----1-------1--|
D|-----2------------2------------2----------4---6----------2------------2------------2------------2------|
A|-0---------0--0---------0--0---------0-----------------------------------------------------------------|
E|-----------------------------------------------------0---------0--0---------0--0---------0--0---------0|

e|--------------|
B|--------------|
G|-2---4---1----|
D|--------------|
A|--------------|
E|-2---4---0----|


************************************
 / = Slide up
************************************
Suggest correction
Creating personal tab
Creating personal tab
You can edit any tab online and save it as your Personal.

You can edit, replace or remove any tab part or add personal notes – all changes will be seen only by you.

Personal tabs can be accessed anytime from any device, even offline.
Learn more »
Give kudos to tab author, rate the tab!
1 2 3 4 5
comments
print report bad tab
guest
You may want to rate the tab now too:
select rating
Wanna post a correction for this tab? Suggest correction