Oops, an error
Loading. Please wait.

Berlin Tab

version 2
version 2

Whole song

by RY X
1,015 views 6 this week
1 commentread comment
1 2 3 4 5
1 last vote to show rating
add to favorites
launch autoscroll
font size
0
reset
how to read this tab
guitar tuner
Autoscroll
slow
fast
+/-
esc
set tempo
stop
Help us to improve Ultimate-Guitar.com Take our survey!
×
-------------------------------------------------------------------------------
                             BERLIN - RY X
-------------------------------------------------------------------------------
Tabbed by: Angelica
E-mail: angelicarimsin@hotmail.com

Tuning: standard

my first tab :) not completed

e|----------------3-3-2-7-7-0----------------3-3-2-7-7-0-3-3-2-7-7-0-------------------------------------|
B|---------------------3--------------------------3-----------3------3-1-0-------------------------------|
G|-2-4-0-5-5-4-4-2-----------2-4-0-5-5-4-4-2------------------------------2-0----------------------------|
D|-------------------------------------------------------------------------------------------------------|
A|-------------------------------------------------------------------------------------------------------|
E|-------------------------------------------------------------------------------------------------------|

e|-------------------------------------------------------------------------------------------------------|
B|-------------------------------------------------------------------------------------------------------|
G|-2-2-2-2-4-4-4-4-4-4-4-4-4-4-4-4-5-5-4-4---------------------------------------------------------------|
D|-------------------------------------------------------------------------------------------------------|
A|-------------------------------------------------------------------------------------------------------|
E|-------------------------------------------------------------------------------------------------------|

e|-------------------------------------------------------------------------------------------------------|
B|-------------------------------------------------------------------------------------------------------|
G|-2-2-2-2-2-2-2-2-2-2-2-2-2-2-2-2--7-10-7---------7-10-7------0--7-10-7---------7-10-7-----0------------|
D|-----------------------------------------10-8-10--------10-8-----------10-8-10--------10-8-------------|
A|-------------------------------------------------------------------------------------------------------|
E|-------------------------------------------------------------------------------------------------------|
Suggest correction
Give kudos to tab author, rate the tab!
1 2 3 4 5
comments
print report bad tab
1 comment total.
0 reply
asafel 67 Jul 05, 2014 10:01 AM

Lack of formatting.

guest
You may want to rate the tab now too:
select rating
Wanna post a correction for this tab? Suggest correction