Oops, an error
Loading. Please wait.

Amy Tab

22,562 views 45 this week
2 commentsread comments
1 2 3 4 5
excellent!
x 7
add to favorites
launch autoscroll
font size
0
reset
how to read this tab
guitar tuner
Autoscroll
slow
fast
+/-
esc
set tempo
stop
Help us to improve Ultimate-Guitar.com Take our survey!
×
Author
Capo
2nd fret
                                   AMY (Live)
                            As recorded by Ryan Adams
                       (From the 2000 Album HEARTBREAKER)

Words and Music by Ryan Adams
Transcribed by nickjh@hyde-official.com

I transcribed this from a live radio version he did. It sounds like the
album version to me but they're might slight differences and it's not
perfect. It's a good start though ;)

CAPO 2nd Fret.

I don’t know why I let go
I want to be your friend
Flowers grow through my window and I love you again
Oh, I love you oh
When you laid me down into your beautiful garden
Flowers in the love of my arms
It’s God shining through to me I guess
It’s God shining through to me, I guess
I love you Amy
Do you still love me?

I go to the places where we used to
I feel sad
I am out here looking for you
Sometimes I pretend
Oh, I miss you oh
When you laid me down
Into your beautiful garden
Flowers and the love in my arms
Is God playing evil tricks on me?
Is God playing evil tricks on me?
Oh I love you Amy
Do you still love me?

INTRO/VERSE
 4/4
  Gtr I
  E Q   Q   Q   E   +E  Q   Q   Q   E   +E  Q  Q  Q   E   +E  Q   Q   Q
|-----------------|-------------------|-----------------|--------------------|
|-----------------|-------------------|-----------------|--------------------|
|-1---------2---1-|-(1)---------2---2-|-(2)----2------1-|-(1)---------2------|
|---2---0---------|-----2---0---------|-----0-----0-----|-----2---0----------|
|-----------------|-----------------3-|-(3)----2--------|--------------------|
|-0-0-0-0-0-0-0-0-|--0--0-0-0-0-0-0---|--0--0--0--0-0---|-(0)-0-0-0-0-0-0-0--|
  E E E E E E E E    E  E E E E E Q      E  Q  Q  E E     +E  E E E E E E E


 BRIDGE
  E E E E E  Q.      E E E E E  Q.
|------------------|------------------|
|------------------|------------------|
|-2-2-----2--------|-2-2-----2--------|
|-----1------1-----|-----1------1-----|
|-2-----2----------|-2-----2----------|
|---------2------2-|---------2------2-|
  H       Q.     E   H       Q.     E


  E E E E E  Q.      E E E E E  Q.      W
|------------------|------------------|---------------|
|------------------|------------------|---------------|
|-4-4-----4--------|-4-4-----4--------|-3-------------|
|-----3------3-----|-----3------3-----|---------------|
|-4-----4----------|-4-----4----------|------------1--|
|---------4------4-|---------4------4-|-2----2--4-----|
  H       Q.     E   H       Q.     E   H    E. E. E


 CHORUS
  E  E Q   E  E Q     Q   E E E E Q     E  E Q   E  E Q     E Q   E E. E. E
|-------------------|-------------0---|-------------------|------------------|
|-3--------3--------|-----------0-----|-3--------3--------|---------------0--|
|----4--------4-----|-1-----1h2-------|----4--------4-----|-1-------1--2-----|
|------4--------4---|-----2-----------|------4--------4---|---2---2----------|
|-2------2-0------0-|-----------------|-2------2-0------0-|------------------|
|-------------------|-0-0---0-------0-|-------------------|-0---0---0--0--0--|
  Q.     E Q.     E   E Q   H       E   Q.     E Q.     E   Q   Q   E. E. E


  Q   Q   E Q   E   +H        E. E. E
|-----------------|-------------------|
|-----------------|-----------------0-|
|-2---1-----------|-----------1--2----|
|---------0-2---2-|-(2)---------------|
|-----------------|-------------------|
|-0-0-0-0-0-0-0-0-|--0--0-0-0-0--0--0-|
  E E E E E E E E    E  E E E E. E. E


  Q   Q   E Q   E   E E E E E E E E   H    E E E E
|-----------------|-----------------|---------------|
|-----------------|-------2---------|---------------|
|-2---1-----------|-2-------2-------|-2-------------|
|---------0-2---2-|---4-------4---4-|-4-------------|
|-----------------|-----4-------4---|----------0-1--|
|-0-0-0-0-0-0-0-0-|-2-------2-------|-2----2-4------|
  E E E E E E E E   H       H         H


  E  E E E E E E E                E E E E H      H    H
|--------2-------2-|-(2)--------|-0------------|-----------|
|-0--------0-------|------------|---0-----0----|-----------|
|----2-------2-----|------------|-----2---2----|-2----2----|
|------1-------1---|------------|-------2------|-2----2----|
|-2------2---------|------------|-0------------|------2----|
|------------------|------------|--------------|-2---------|
  Q.     H       E   +W           W              H    H


 CHANNEL
  E  E Q   E  E Q     E  E Q   E  E Q     Q  Q  Q  Q    Q  Q  Q  Q
|-4--------4--------|-0--------0--------|-------------|-------------|
|----0--------0-----|----0--------0-----|-------------|-------------|
|------6--------6---|------6--------6---|-4--4--6--6--|-------------|
|-------------------|-------------------|-------------|-4--4--6--6--|
|-0------0-0------0-|-0------0-0------0-|-0--0--0--0--|-0--0--0--0--|
|-------------------|-------------------|-------------|-------------|
  Q.     E Q.     E   Q.     E Q.     E


 OUTRO CHANGE
  E E E E E E E E   E E E E E E E E
|-----------------|-----------------||----|
|-2-------4-------|-2-------2-------||----|
|---2-------4-----|---2-------2-----||----|
|-----2-------4---|-----2-------2---||----|
|-----------------|-0-----0-2-----2-||----|
|-2-----2-4-----4-|-----------------||----|

***************************************************************************************
* Generated using Power Tab Editor by Brad Larsen - http://powertab.guitarnetwork.org *
***************************************************************************************
Suggest correction
comments
print report bad tab
2 comments total.
0 reply
mhongslo1 10 wrote on July 9 2013, 05:36 pm

what's the tab for the last 'do you still love me'

0 reply
nickjh82 31 wrote on October 31 2014, 04:17 pm

The last 'do you still love me' is the tab marked 'Outro change' at the end.

guest
You may want to rate the tab now too:
select rating
Wanna post a correction for this tab? Suggest correction