Oops, an error
Loading. Please wait.

Call Me On Your Way Back Home Tab

28,256 views 3 this week
no commentswrite comment
1 2 3 4 5
accurate
x 3
add to favorites
launch autoscroll
font size
0
reset
how to read this tab
guitar tuner
Tab Pro tools
  • play this tab
  • loop segment
  • change instrument
  • show fretboard
  • metronome
×
Best way to learn
"Call Me On Your Way Back Home"
Autoscroll
slow
fast
+/-
esc
set tempo
stop
Difficulty
Capo
intermediate
3rd fret
Capo 3rd     finger picking

intro
Am
--0--------------|   X 3
--1-0h1----------|
--2-----2p0------|
--2---------2p0--|
-----------------|
-----------------|

Verse
Am
--0---------------|
--1-0h1----1------|
--2---------------|          oh baby why
--2---------------|
--------0h2-2/3---|
------------------|


C
-------------------|
---1-----1-----1---|
----0-----0-----0--|
-----2-----2-----0-|          do i miss u like i do
--3----------------|
--------3-----1----|

C
--------------------|
---1-----1------1---|
----0-----0------2--|
-----2-----2---3--3-|         oh miss my sweet
--3-----------------|
--------3-----------|

C
-------------------|
---1-----1-----1---|
----0-----0-----0--|
-----2-----2-----0-|           when the birds are singing blue
--3----------------|
--------3-----1----|

----------------------|
----------1---1---1---|
-----------0---0---0--|         and why
--3-2-0--0---0---0----|
----------------------|
----------------------|

----------------------|
----------------------|
---1--1----1--1-------|         why
----2--2----2--2------|
-----3-------3--------|
-0--------0-----------|

C
-------------------|
---1-----1-----1---|
----0-----0-----0--|
-----2-----2-----0-|           call me on your way back home dear
--3----------------|
--------3-----1----|

Am
-----------------------|
---1----1---1---1------|
----2----2---2---2-----|        cos i miss u
-----2----2---2---2----|
--0--------------------|
-----------------------|

-------------------------|
-------------1---111-----|
-------------0---000-----|
---0h2-------0h2-222-----|     honey i aint nothing new
-------------3---333-----|
--------1---33---333-----|

second verse same

--------|
--1-1-1-|
--0-0-0-|     X3
--2-2-0-|     im just gonna die without you
--3-3-0-|
----3-1-|

----------------------|
----------1---1---1---|
-----------0---0---0--|     without you
--3-2-0--0---0---0----|
----------------------|
----------------------|

-------------------------|
-------------1---111-----|
-------------0---000-----|
---0h2-------0h2-222-----|     honey i aint nothing new
-------------3---333-----|
--------1---33---333-----|

Outro
-------------     ----|
--1--1--1--1-     -11-|
--2--0--2--0-     -00-|  listen for strumming
--2--2--3--0- X 2 -22-|
-----3-----2-     -33-|
-----------3-     -33-|

ryan adams is god
Peace
Rob Proud
comments
We did not receive enough feedback on this tab! Please rate:
print report bad tab
1 2 3 4 5
I want to post or [tab]
guest
You may want to rate the tab now too:
select rating
Please do not post tabs as comments. Select "correction" instead!